Ads

History Maker (Yuri!!! on Ice) Guitar Tab

Submitted: Dec 16, 2016 by MechaKrauser

5
Average: 5 (2 votes)
Download | Listen
Game: Yuri!!! on Ice
Composer(s): Taro Umebayashi, Taku Matsushiba
Style: Arrangement, Fingerstyle

AutoScroll: Slow | Medium | Fast
History Maker
from Yuri!!! on Ice
composed by DEAN FUJIOKA, Taro Umebayashi, Taku Matsushiba
words by DEAN FUJIOKA
tab by MechaKrauser

Drop D tuning, capo on 2
6/8 time, 100bpm

Staccato'd notes are marked with "."


  [Intro]
                                                                      .      .  .  .
                                                                   ^  v  ^ v ^  v  ^   
     S  S S  S S S S S  S S S  S    S  S S  S S S S  S S  S S S    E  E  S S E  E  E   
E||------------------------------|------------------------------|--5------------------|
B||-----------------------3------|-------3h-5---3------3h-5---3-|---------------------|
G||-------0h-2---0---0h-2---0h-2-|--0h-2------2---0h-2------2---|---------------------|
D||--0h-2------2---2-------------|------------------------------|-----2--2-2-4--4--4--|
A||--0---------------------------|--0---------------------------|-----4--4-4-5--5--5--|
D||------------------------------|------------------------------|--0--x--x-x-0--x--x--|


                     [Verse 1]					
  .  .      .  .  .					 
  ^  v  ^ v ^  v  ^                                                                                 
  E  E  S S E  E  E     E  E  E  Q.        E  E  E  Q.        E  E  E  Q.        E  S S E  Q    E   
---------------------|------------------|------------------|------------------|--------------------|
---------------------|------------------|------------------|------------------|--------------------|
---------------------|------------------|--------2--2------|--2---------------|--------------------|
--2--2--2-2-4--4--4--|-----2--4--4------|-----4------------|-----2--2--2------|-----2-2-4--4-------|
--4--4--4-4-5--5--5--|------------------|--2--------2------|------------------|-----------------0--|
--0--x--x-x-0--x--x--|--0--------0------|------------------|--4--------4------|--5---------5-------|


  E  E  E  Q.        E  E  E  Q    E     Q    E  Q    E     Q.     E  E  E     Q    E  E  E  E   
------------------|-------------------|------------------|------------------|-------------------|
------------------|-------------------|------------------|------------------|-------------------|
------------------|--------2--2----4--|------------------|---------------0--|--2----2--2--0-----|
-----2--4--4------|-----4-------------|--2----2--2----4--|--0---------4-----|--4-------4-----4--|
------------------|--2--------2-------|------------------|------------------|-------------------|
--0--------0------|-------------------|--4-------4-------|--5------5--------|--4-------4--------|


  E.  E.  E.  E.     Q    E  E  E  E     E.  E.  Q    E     Q    E  E  E  E     E  Q    E  E  E   
------------------|-------------------|------------------|-------------------|-------------------|
------------------|-------------------|------------------|-------------------|-------------------|
------------------|--2----2--2--0-----|------------------|--2----2--2--0-----|----------------0--|
--2---0---2---4---|--2-------2-----4--|--2---4---2-------|--4-------4-----4--|--2--0-------4-----|
------------------|--0-------0--------|--2-------2-------|-------------------|-------------------|
--5-------5-------|-------------------|------------------|--4-------4--------|--5-------5--------|


                                      [Pre-Chorus]
									  
                                         .
  Q    E  E  E  E     E.  E.  E.  E.     Q    E  E  S S E     Q    E  E  S S E   
-------------------|--------------0---|-------------0------|----------0------0--|
----------------2--|--3---2---3-------|--3----0--3------3--|-------0--0--3---0--|
--2----2--2--4-----|------------------|----------0--0---4--|-------------4------|
--2-------2--------|--4-------4-------|-------0------------|-------4-------0----|
--0-------0--------|--2-------2-------|---------------0----|--2-------2---------|
-------------------|------------------|--5-------5---------|--------------------|

  .                                                             .
  Q.     E  S S E     E  E  E  E  E  E     Q    E  E  S S E     Q    E  E  S S E   
--0------0---------|--0-----0--3--2-----|-------------0------|----------0------0--|
--2------2--3------|--2--3--2--5--3--3--|-------0--3------3--|--3----0--0--3---0--|
------------2------|-----2-----------4--|----------0--0---0--|--4----------4------|
-------------------|--------------------|-------0------------|-------4-------0----|
--0------0---------|--0--------0--------|---------------0----|--2-------2---------|
--------------5-L--|--------------------|--5-------5---------|--------------------|


                                        [Chorus]
										
  .
  Q.     E  S S E     E  E  E  E  E  E     Q.     E.  E.     Q.     E.  E.     Q.     E  S S E   
--0------0---------|--0-----0--3--2-----|-----------------|-----------------|-------------------|
--2------2--3---3--|--2--3--2--5--3--3--|--0--------------|-----------------|-------------------|
------------2---2--|-----2-----------4--|--0------2-------|-----------------|--2----------------|
-------------------|--------------------|-----------------|--4----------0---|---------0--L---4--|
--0------0---------|--0--------0--------|-------------0---|--2------2-------|--0------0--L------|
--------------5----|--------------------|--5------5-------|-----------------|--------------5----|


  E  E  E  E  E  E     Q.     E.  E.     Q.     E.  E.     Q.     E  S S E     E  E  E  E  E  E   
--0-----0--3--2-----|-----------------|-----------------|-------------------|--0-----0--3--2-----|
-----3-----------3--|--0--------------|-----------------|------------5---5--|-----3-----------3--|
--------------------|--0------2-------|-----------------|--2----------------|--------------------|
--2-----------------|-----------------|--4----------0---|---------0------4--|--2-----------------|
--0--------0--------|-------------0---|--2------2-------|--0------0---------|--0--------0--------|
--------------------|--5------5-------|-----------------|--------------5----|--------------------|

                                            .
  Q    E  E  S S E     Q    E  E  S S E     Q.     E  S S E     E  E  E  E  E  E   
-------------0------|----------0------0--|--0------0---------|--0-----0--3--2-----|
--0----0--3------3--|-------0--0--3------|--2---------3------|-----3--2--------3--|
--0-------2------4--|-------------4------|--2---------2------|-----2-----2-----4--|
--------------------|--4------------0----|---------0------4--|--2-----------------|
---------------0----|--2-------2---------|--0------0---------|--0--------0--------|
--5-------5---------|--------------------|--------------5----|--------------------|

                       .                    .
  Q    E  E  S S E     Q    E  E  S S E     Q.     E  S S E     E  E  E  E  E  E   
-------------0------|----------0------0--|--0------0---------|--0-----0--3--2-----|
--0----0--3------3--|--3----0--0--3------|--2---------3---3--|-----3--2--------3--|
--0-------2------4--|-------------4------|--2---------2------|-----2-----2-----2--|
--------------------|--4------------0----|---------0------4--|--2-----------------|
---------------0----|--2-------2---------|--0------0---------|--0--------0--------|
--5-------5---------|--------------------|--------------5----|--------------------|


  E  E  S S E  E  S S    E  E  S S E  E  S S    E  E  S S E  E  S S    E  E  S S S S S S  S S  
------------5---------|------------5---------|------------5---------|------------5----------5-|
----------------------|----------------------|----------------------|----------3-------3h-5---|
-----2----2----2----2-|-----2----2----2----2-|-----2----2----2----2-|-----2----------2--------|
--------0---------0---|--------0---------0---|--------2---------2---|--------2-----2----------|
----------------------|----------------------|--0---------0---------|--2---------2------------|
--0---------0---------|--5---------5---------|----------------------|-------------------------|


 [Verse 2]

  ^                                                                              ^                 
  E  E  E  Q.        E  E  E  Q    E     E  E  E  Q.        E  S S E  Q    E     E  E  E  Q    E   
------------------|-------------------|------------------|--------------------|-------------------|
------------------|-------------------|------------------|--------------------|-------------------|
--2---------------|--------2--2-------|--2---------------|--------------------|--2----------------|
-----0--2--4------|-----4----------2--|-----2--2--2------|--0--0-0-2--4-------|-----2--4--4----4--|
--0---------------|--2--------2-------|------------------|-----------------0--|--0----------------|
--0--------0------|-------------------|--4--------4------|--5---------5-------|--0--------0-------|


  E  E  E  Q    E     Q    E  Q    E     Q.     E  E  E     Q    E  E  E  E     E.  E.  E.  E.   
-------------------|------------------|------------------|-------------------|------------------|
-----3--2----------|------------------|------------------|-------------------|------------------|
-----------2----4--|------------------|---------------0--|--2----2--2--0-----|------------------|
-------------------|--2----2--2----4--|--0---------4-----|--4----4--4--0--4--|--2---0---2---4---|
--2--------2-------|------------------|------------------|----------------5--|--5---2---5---5---|
-------------------|--4-------4-------|--5------5--------|--4-------4--------|--5-------5-------|


  Q    E  E  E  E     E.  E.  Q    E     Q    E  E  E  E     E  Q    E  E  E     Q    E  E  E  E   
-------------------|------------------|-------------------|-------------------|-------------------|
-------------------|------------------|-------------------|-------------------|----------------2--|
--2----2--2--0-----|------------------|--2----2--2--0-----|----------------0--|--2----2--2--4-----|
----------------4--|--2---4---2-------|----------------4--|--2--0-------4-----|-------------------|
--0-------0-----5--|--2---5---2-------|-------------------|-------------------|--0-------0--------|
-------------------|------------------|--4-------4--------|--5-------5--------|-------------------|


                  [Pre-Chorus 2]
				  
                     .                                         .
  E.  E.  E.  E.     Q    E  E  S S E     Q    E  E  S S E     Q.     E  S S E   
------------------|-------------0------|----------0------0--|--0------0---------|
--3---2---3---5---|--3----0--3------3--|-------0--0--3---0--|--2------2--3------|
--4---2---4---2---|--4-------0--0---4--|-------------4------|------------2------|
--4-------4-------|-------0------------|-------4-------0----|-------------------|
--2-------2-------|---------------0----|--2-------2---------|--0------0---------|
------------------|--5-------5---------|--------------------|--------------5-L--|

                                            .                    .
  E  E  E  E  E  E     Q    E  E  S S E     Q    E  E  S S E     Q.     E  S S E   
--0-----0--3--2-----|-------------0------|----------0------0--|--0------0---------|
--2--3--2--5--3--3--|-------0--3------3--|--3----0--0--3---0--|--2------2--3---3--|
-----2-----------4--|----------0--0---0--|--4----------4------|------------2---2--|
--------------------|-------0------------|-------4-------0----|-------------------|
--0--------0--------|---------------0----|--2-------2---------|--0------0---------|
--------------------|--5-------5---------|--------------------|--------------5----|


                    [Chorus 2]
					

  E  E  E  E  E  E     Q.     E.  E.     Q.     E.  E.     Q.     E  S S E     E  E  E  E  E  E   
--0-----0--3--2-----|-----------------|-----------------|-------------------|--0-----0--3--2-----|
--2--3--2--5--3--3--|--0--------------|-----------------|-------------------|-----3-----------3--|
-----2-----------4--|--0------2-------|-----------------|--2----------------|--------------------|
--------------------|-----------------|--4----------0---|---------0--L---4--|--2-----------------|
--0--------0--------|-------------0---|--2------2-------|--0------0--L------|--0--------0--------|
--------------------|--5------5-------|-----------------|--------------5----|--------------------|


  Q.     E.  E.     Q.     E.  E.     Q.     E  S S E     E  E  E  E  E  E     Q    E  E  S S E   
-----------------|-----------------|-------------------|--0-----0--3--2-----|-------------0------|
--0--------------|-----------------|------------5---5--|-----3-----------3--|--0----0--3------3--|
--0------2-------|-----------------|--2----------------|--------------------|--0-------2------4--|
-----------------|--4----------0---|---------0------4--|--2-----------------|--------------------|
-------------0---|--2------2-------|--0------0---------|--0--------0--------|---------------0----|
--5------5-------|-----------------|--------------5----|--------------------|--5-------5---------|

                       .
  Q    E  E  S S E     Q.     E  S S E     E  E  E  E  E  E     Q    E  E  S S E   
----------0------0--|--0------0---------|--0-----0--3--2-----|-------------0------|
-------0--0--3------|--2---------3------|-----3--2--------3--|--0----0--3------3--|
-------------4------|--2---------2------|-----2-----2-----4--|--0-------2------4--|
--4------------0----|---------0------4--|--2-----------------|--------------------|
--2-------2---------|--0------0---------|--0--------0--------|---------------0----|
--------------------|--------------5----|--------------------|--5-------5---------|


                                                             [Final Chorus]
															 
  .                    .
  Q    E  E  S S E     Q.     E  S S E     E  E  E  E  E  E     Q    E  E  S S E   
----------0------0--|--0------0---------|--0-----0--3--2-----|-------------0------|
--3----0--0--3------|--2---------3---3--|-----3--2--------3--|--0----0--3--0---3--|
-------------4------|--2---------2------|-----2-----2-----4--|--0----0--2------4--|
--4------------0----|---------0------4--|--2-----------------|--------------------|
--2-------2---------|--0------0---------|--0--------0--------|---------------0----|
--------------------|--------------5----|--------------------|--5-------5---------|

                       .
          ^            ^                   ^  v  ^  ^  v  ^                        
  Q    E  E  S S E     Q.     E  S S E     E  E  E  E  E  E     Q    E  E  S S E   
----------0------0--|--0------0---------|--2--0--2--3--2-----|-------------0------|
-------0--0--3---0--|--2---------3------|--5--3--5--3--3--3--|--0----0--3------3--|
-------------4------|--2---------2------|--2--x--2--2--2--4--|--0-------2------4--|
--4----4-------0----|---------0------4--|--2--2-----2--------|--------------------|
--2-------2---------|--0------0---------|--0--------0--------|---------------0----|
--------------------|--------------5----|--------------------|--5-------5---------|


                                                             [Outro]

  .                    .                   ^        ^                        ^  v   
  Q    E  E  S S E     Q.     E  S S E     E  E  E  E  E  E     E  E  S S E  E  E   
----------0------0--|--0------0---------|--0-----0--3--2-----|---------------------|
--3----0--0--3---0--|--2---------3---3--|--2--3--2--5--3--3--|---------------3--3--|
-------------4------|--2---------2------|--2--2-----------4--|-----2------2--2--2--|
--4------------0----|---------0------4--|--2-----------------|----------2----------|
--2-------2---------|--0------0---------|--0--------0--------|--0-----0---0--------|
--------------------|--------------5----|--------------------|---------------------|


  ^        ^                        ^  v     ^        ^                     ^  v  ^   
  E  E  E  E  E  E     E  E  S S E  E  E     E  E  E  E  E  E     E  E  S S E  E  E   
--0-----0--3--2-----|---------------------|--0-----0--3--2-----|------------0--------|
--2--3--2--5--3--3--|---------------3--3--|--2--3--2--5--3--3--|------------2--3--3--|
--2--2-----2-----4--|-----2------2--2--2--|--2--2-----2-----4--|-----2---------2--2--|
--2-----------------|----------2----------|--2-----------------|----------2----------|
--0--------0--------|--0-----0---0--------|--0--------0--------|--0-----0---0--------|
--------------------|---------------------|--------------------|---------------------|


  >  >  >  >  >  >               ^              ^              
  E  E  E  E  E  E     E  E  S S S S S S S S    H.             
--0-----0--3--2-----|-----5------5---------5-|---------------||
--2--3--2--5--3--3--|--------------3---------|---------------||
-----2-----------2--|-----2----2---------2---|---------------||
--------------------|--------2-------2-------|--0------------||
--0--------0--------|--0---------0-----0-----|---------------||
--------------------|------------------------|--0------------||




Duration Legend
---------------
W - whole
H - half
Q - quarter
E - 8th
S - 16th
T - 32nd
X - 64th
. - note dotted
|-n-|  - n-tuplets


Tablature Legend
----------------
L - tied note
x - dead note
g - grace note
(n) - ghost note
> - accentuded note
NH - natural harmonic
AH - artificial harmonic
TH - tapped harmonic
SH - semi harmonic
PH - pitch harmonic
h - hammer on
p - pull off
b - bend
br - bendRelease
pb - preBend
pbr - preBendRelease
brb - bendReleaseBend
\n/ - tremolo bar dip
\n - tremolo bar dive
-/n - tremolo bar Release up
/n\ - tremolo bar inverted dip
/n - tremolo bar return
-\n - tremolo bar Release down
S - shift slide
s - legato slide
/ -  slide into from below or out of upwards
\ -  slide into from above or out of downwards
~ - vibrato
W - wide vibrato
tr - trill
TP - tremolo picking
T - tapping
S - slap
P - pop
< - fade in
^ - brush up
v - brush down
Login or Register to remove this ad.