Ernst (Ys Seven) Guitar Tab

Submitted: Oct 20, 2010 by hslesperance (Last updated: Oct 27, 2015)

0
Download | Listen
Game: Ys Seven
Composer(s): Hayato Sonoda, Takahiro Unisuga, Saki Momiyama, Masanori Osaki
Style: Pinch harmonics, Transcription
Series: Ys

AutoScroll: Slow | Medium | Fast
Ernst
Ys Seven
Composed by Hayato Sonoda, Takahiro Unisuga, Saki Momiyama, Masanori Osaki
Tabbed by hslesperance
10/20/10

Standard Tuning


e--------------------------------------------------------------
B--------------------------------------------------------------
G--------------------------------------------------------------
D----------7--9-----------10----9----7----9----7------7----9---
A---7--10------------7-----------------------------------------
E--------------------------------------------------------------

e--------------------------------------------------------------
B--------------------------------------------------------------
G--------------------------------------------------------------
D---7---------7--------------7---------------------------------
A--------10-----9------10---------9---------------7/9------7---
E--------------------------------------7----10-----------------

e--------------------------------------------------------------
B--------------------------------------------------------------
G-------------------------------7------------------------------
D----------7--9------------9---------9----7----9----7----------
A---7--10------------------------------------------------------
E--------------------------------------------------------------

e--------------------------------------------------------------
B--------------------------------------------7----8/10----8----
G---5/7--7---------------------7--------9----------------------
D-------------10----9----10------------------------------------
A--------------------------------------------------------------
E--------------------------------------------------------------

e-------------------------------------------7------------------
B---7----8----7----------------------8--10---------------------
G--------------------9------------9----------------------9-----
D--------------------------------------------------------------
A--------------------------------------------------------------
E--------------------------------------------------------------

e---6/8----7----------7------------------------7---------------
B---------------10---------10------------10---------10----8----
G--------------------------------------------------------------
D--------------------------------------------------------------
A--------------------------------------------------------------
E--------------------------------------------------------------

e--------------------------------------------------------------
B---10-7------8----10----7------------------5/7----------------
G--------------------------------------7-------------9---------
D-------------------------------9------------------------------
A--------------------------------------------------------------
E--------------------------------------------------------------

e-------------7------------7----10----7----------7-------------
B------8--10-------------------------------10---------10-------
G---9----------------------------------------------------------
D--------------------------------------------------------------
A--------------------------------------------------------------
E--------------------------------------------------------------

e---8/10----10----8----7----8----8/10------12----14----15/17---
B--------------------------------------------------------------
G--------------------------------------------------------------
D--------------------------------------------------------------
A--------------------------------------------------------------
E--------------------------------------------------------------

e---15----14----15----14------14\12----------------------------
B--------------------------------------------------------------
G--------------------------------------------------------------
D--------------------------------------------------------------
A--------------------------------------------------------------
E--------------------------------------------------------------

e--------------------------------------------------------------
B----------------------------------------------------12--------
G-----------11--12------------11------12--------14--------12---
D---14--14------------------------14---------------------------
A--------------------------------------------------------------
E--------------------------------------------------------------

e------------------------------------------12---15---14---12---
B--------------------------12--------13------------------------
G---11------12--------14--------14-----------------------------
D-------14-----------------------------------------------------
A--------------------------------------------------------------
E--------------------------------------------------------------

e---12---11---12--14--------------------12----11----------11---
B---------------------------------------------------14---------
G--------------------------------------------------------------
D--------------------------------------------------------------
A--------------------------------------------------------------
E--------------------------------------------------------------

e----------------------------10---12---10--9-------------------
B---------7---8--7---8---10------------------------------------
G---7/9--------------------------------------------------------
D--------------------------------------------------------------
A--------------------------------------------------------------
E--------------------------------------------------------------

e-----------10-------------------------------------------------
B---11/13-----------13--12--------------10---------10----------
G---------------------------12------12----------9------11------
D-------------------------------12-----------------------------
A--------------------------------------------------------------
E--------------------------------------------------------------

e------------------------------------10---12--9----------------
B---------------------------10--12-----------------------------
G---7/9-------12--11---12--------------------------------------
D---------9----------------------------------------------------
A--------------------------------------------------------------
E--------------------------------------------------------------

e-----------10-------------------------------------------------
B---11/13-----------13--12--------------10------10b12----------
G---------------------------12------12-------------------------
D-------------------------------12-----------------------------
A--------------------------------------------------------------
E--------------------------------------------------------------

e------------------------------10---12---10--9-----------------
B--------------------------10----------------------------------
G---9---11---12--11---12---------------------------------------
D--------------------------------------------------------------
A--------------------------------------------------------------
E--------------------------------------------------------------

e--------10----------------------------------------------------
B---13-----------13--12--------------10---------10-------------
G------------------------12------12----------9------11---------
D----------------------------12--------------------------------
A--------------------------------------------------------------
E--------------------------------------------------------------

e-----------------------------------10---12--9-----------------
B--------------------------10--12------------------------------
G---9---11---12--11---12---------------------------------------
D--------------------------------------------------------------
A--------------------------------------------------------------
E--------------------------------------------------------------

e--------10----------------------------------------------------
B---13-----------13--12--------------10----------------12------
G------------------------12------12----------------------------
D----------------------------12--------------------------------
A--------------------------------------------------------------
E--------------------------------------------------------------

Skip 1:45-2:02

e--------------------------------------------------------------
B---------------12------------------13----12----------12-------
G-------12--14----------------------------------14----------14-
D---14------------------------14-------------------------------
A--------------------------------------------------------------
E--------------------------------------------------------------

e--------------------------------------------------------------
B---------12---------------------------------------------------
G---14----------14----12---14-11------12------14----11---------
D--------------------------------------------------------------
A-----------------------------------------------------------14-
E--------------------------------------------------------------

e--------------------------------------------------------------
B-------------------------------------------------12-----------
G---------11------------------------------12--14---------------
D---12------------14------------------14-----------------------
A--------------------------------------------------------------
E--------------------------------------------------------------

e--------------------------------------------------------------
B---12----15----12----------12------------------15----15----13-
G---------------------14----------14---------------------------
D--------------------------------------------------------------
A--------------------------------------------------------------
E--------------------------------------------------------------

e-----------------------12------14----17----15----14----15-----
B---12----13----15---------------------------------------------
G--------------------------------------------------------------
D--------------------------------------------------------------
A--------------------------------------------------------------
E--------------------------------------------------------------

e---14------12-------------------------------------------------
B-------------------------------------------12-----------------
G-----------------------------------12--14---------------------
D-------------------------------14------------------------14---
A--------------------------------------------------------------
E--------------------------------------------------------------

e--------------------------------------------------------------
B---11/13----12----------12---------------------------12-------
G------------------14----------14------------12/14----------14-
D--------------------------------------------------------------
A--------------------------------------------------------------
E--------------------------------------------------------------

e--------------------------------------------------------------
B--------------------------------------------------------------
G---12---14-11------12---14--11--------------------------------
D------------------------------------------12----14/16------14-
A------------------------------------14------------------------
E--------------------------------------------------------------

e--------------------------------------------------------------
B---------------12------------12----15----12----------12-------
G-------12--14----------------------------------14----------14-
D---14---------------------------------------------------------
A--------------------------------------------------------------
E--------------------------------------------------------------

e-----------------------------------------------12------14-----
B---13/15----15----13----12----13----13/15---------------------
G--------------------------------------------------------------
D--------------------------------------------------------------
A--------------------------------------------------------------
E--------------------------------------------------------------

e---15/17----15----14----15----14------------------------------
B--------------------------------------17----------------------
G--------------------------------------------------------------
D--------------------------------------------------------------
A--------------------------------------------------------------
E--------------------------------------------------------------

e--------------------------------------------------------------
B----------------------------------------------------12--------
G-----------11--12------------11------12--------14--------12---
D---14--14------------------------14---------------------------
A--------------------------------------------------------------
E--------------------------------------------------------------

e------------------------------------------12---15---14---12---
B--------------------------12--------13------------------------
G---11------12--------14--------14-----------------------------
D-------14-----------------------------------------------------
A--------------------------------------------------------------
E--------------------------------------------------------------

e---12---11---12--14----------19--------12----11----------11---
B---------------------------------------------------14---------
G--------------------------------------------------------------
D--------------------------------------------------------------
A--------------------------------------------------------------
E--------------------------------------------------------------

e----------------------------10---12---10--9-------------------
B---------7---8--7---8---10------------------------------------
G---7/9--------------------------------------------------------
D--------------------------------------------------------------
A--------------------------------------------------------------
E--------------------------------------------------------------

e-----------10-------------------------------------------------
B---11/13-----------13--12--------------10---------10----------
G---------------------------12------12----------9------11------
D-------------------------------12-----------------------------
A--------------------------------------------------------------
E--------------------------------------------------------------

e------------------------------------10---12--9----------------
B---------------------------10--12-----------------------------
G---7/9-------12--11---12--------------------------------------
D---------9----------------------------------------------------
A--------------------------------------------------------------
E--------------------------------------------------------------

e-----------10-------------------------------------------------
B---11/13-----------13--12--------------10------10b12----------
G---------------------------12------12-------------------------
D-------------------------------12-----------------------------
A--------------------------------------------------------------
E--------------------------------------------------------------

e------------------------------10---12---10--9-----------------
B--------------------------10----------------------------------
G---9---11---12--11---12---------------------------------------
D--------------------------------------------------------------
A--------------------------------------------------------------
E--------------------------------------------------------------

e--------10----------------------------------------------------
B---13-----------13--12--------------10---------10-------------
G------------------------12------12----------9------11---------
D----------------------------12--------------------------------
A--------------------------------------------------------------
E--------------------------------------------------------------

e----------------------------------10---12--9------------------
B-------------------------10--12-------------------------------
G---9-------12--11---12----------------------------------------
D-------9------------------------------------------------------
A--------------------------------------------------------------
E--------------------------------------------------------------

e--------10----------------------------------------------------
B---13-----------13--12--------------10------12----------------
G------------------------12------12----------------------------
D----------------------------12--------------------------------
A--------------------------------------------------------------
E--------------------------------------------------------------

e------------------------------10---12---10--9-----------------
B--------------------------10----------------------------------
G---9---11---12--11---12---------------------------------------
D--------------------------------------------------------------
A--------------------------------------------------------------
E--------------------------------------------------------------

e--------10----------------------------------------------------
B---13-----------13--12--------------10---------10-------------
G------------------------12------12----------9------11---------
D----------------------------12--------------------------------
A--------------------------------------------------------------
E--------------------------------------------------------------

e----------------------------------10---12--9------------------
B-------------------------10--12-------------------------------
G---9-------12--11---12----------------------------------------
D-------9------------------------------------------------------
A--------------------------------------------------------------
E--------------------------------------------------------------

e--------10----------------------------------------------------
B---13-----------13--12--------------10------10b12-10b12-10b12-
G------------------------12------12----------------------------
D----------------------------12--------------------------------
A--------------------------------------------------------------
E--------------------------------------------------------------

Skip 3:40-3:42

e--------------------------------------------------------------
B--------------------------------------------------------------
G-------------------------------------------------------11--12-
D-----------------------------------14--12----------14---------
A-------------------12------12--14----------14--12-------------
E---12--14--15--12------15-------------------------------------

e--------------------------------------------------------------
B---12--------------------------12--15--12--16--15--16--17--16-
G-------11--12--14--11--12--14---------------------------------
D--------------------------------------------------------------
A--------------------------------------------------------------
E--------------------------------------------------------------

e--------------------------------------------------------------
B---15------15--16--17--15--16--15--16--15h16h17--15-----------
G-------16--------------------------------------------16--14---
D--------------------------------------------------------------
A--------------------------------------------------------------
E--------------------------------------------------------------

e---------------15--17b19------------------------20b22--20-20--
B-------15--17-------------------------------------------------
G---16---------------------------------------------------------
D--------------------------------------------------------------
A--------------------------------------------------------------
E--------------------------------------------------------------

e---19---17-19--20--19----------------20-----------------------
B-----------------------------17--20------17------19-----------
G-------------------------20------------------20------17--16---
D--------------------------------------------------------------
A--------------------------------------------------------------
E--------------------------------------------------------------

e--------------------------------------------------------------
B--------------------------------------------------------------
G---19----------19------17--16------16-------------------------
D-------17--16------16------------------19------19--17---------
A-------------------------------17----------15----------12-10--
E--------------------------------------------------------------

                      Some of these notes are probably wrong
e--------------------------------------------------------------
B---------------------------------------------------12-13-15---
G---------------------------------------------12-14------------
D---------------------------------12-14-15-16------------------
A---12-10----------------12-14-15------------------------------
E---------14-12-10----15---------------------------------------

e--------------------------------------------------------------
B---13-12------------------------------------------------------
G---------12----12h14h15h16T19p16p15p14-12h14h15h16T19p16p15p14
D--------------------------------------------------------------
A--------------------------------------------------------------
E--------------------------------------------------------------

e--------------------------------------------------------------
B--------------------------------------------------------------
G---12h14h15h16T19p16p15p14-12h14h15h16T19p16p15p14------------
D--------------------------------------------------------------
A--------------------------------------------------------------
E--------------------------------------------------------------

e--------------------------------------------------------------
B--------------------------------------------------------------
G---12h14h15h16T19p16p15p14-12h14h15h16T19p16p15p14------------
D--------------------------------------------------------------
A--------------------------------------------------------------
E--------------------------------------------------------------

e--------------------------------------------------------------
B--------------------------------------------------------------
G---19p16-------21p16-------19p16-------19p16-------19p16------
D---------19p17-------19p17-------19p17-------19p17-------19p17
A--------------------------------------------------------------
E--------------------------------------------------------------

e--------------------------------------------------------------
B--------------------------------------------------------------
G---21p16-------19p16-------19p16------------------------------
D---------19p17-------19p17-------19p17-19p17-------19p17------
A---------------------------------------------19p17-------19p17
E--------------------------------------------------------------

e--------------------------------------------------------------
B--------------------------------------------------------------
G------------------------------------------------------14/16---
D---T19p17T19p14-T19p17T19p17-14p12-T19p17T19p14-14p12---------
A--------------------------------------------------------------
E--------------------------------------------------------------
       PH
e--------------------------------------------------------------
B------17~-------------------------------17--19--20--19--------
G---16-------------------------------16------------------17--16
D-----------17h19p17p16--16--17--19----------------------------
A--------------------------------------------------------------
E--------------------------------------------------------------

e---------------17----------19----------20----------22---------
B---20---------------------------------------------------------
G-------17--16------17--16------17--16------17--16------17--16-
D--------------------------------------------------------------
A--------------------------------------------------------------
E--------------------------------------------------------------

e-----------20----------19-------------------------------------
B-------------------------------------------------19/20--20----
G---17--16------17--16------17--16-----------------------------
D-----------------------------------17--16--16-----------------
A--------------------------------------------------------------
E--------------------------------------------------------------

e--------------------------------------------------------------
B---19h20p19------------19--20---------------------------------
G-------------20----21-----------------------------------------
D--------------------------------------------------------------
A--------------------------------------------------------------
E--------------------------------------------------------------

h - hammer on
p - pull off
/ - slide up
\ - slide down
b - bend
PH - pinch harmonic
T - tapping
~ - vibrato
Login or Register to remove this ad.

2 comments on Ernst

Timing

When does the 0:19 guitar start at? As in which bar? = P

Well, going by the mp3 in the

Well, going by the mp3 in the audio file, which is silent for the first 5 seconds, that guitar starts at 0:23. It is the very first bar that starts with the A7 note. The first three notes may be hard to hear, but lead guitar starts on A7, not D9 if that is what you thought.