Fountain of Love (Ys I & II Chronicles) Guitar Tab

Submitted: Mar 01, 2016 by quinndangle2

5
Average: 5 (2 votes)
Download | No audio :(
Game: Ys I & II Chronicles
Composer(s): Yuzo Koshiro, Mieko Ishikawa, Hideya Nagata, Masaya Hashimoto
Style: Arrangement, Fingerstyle
Series: Ys

AutoScroll: Slow | Medium | Fast
Fountain of Love
From Ys I&II Chronicles
Composed by Falcom Sound Team jdk
Tabbed by Brent Quinn

Drop D Capo 3
Tempo = 125
4/4 Time

    E   E   E   E   E   E   E   E     E   E   E   E   E   E   E   E     E   E   E   E   E   E   E   E
E||---------------------------------|---------------------------------|---------------------------------|
B||---------------------------------|---------------------------------|---------2-------0---------------|
G||*------------2---4---2-----------|-----2---4---2---1---2---1-------|---------------------2-----------|
D||*--------2-----------------------|-2---------------------------2---|-4---------------------------4---|
A||-0---4-------0-----------0---4---|-0-----------0-------0---2-------|-----0-------0-------------------|
D||---------------------------------|---------------------------------|-0-----------------------0-------|


   E   E   E   E   E   E   E   E     E   E   E   E   E   E   E   E     E   E   E   E   E   E   E   E
E|---------------------------------|---------------------------------|---------------------------------|
B|---------------------------------|-----------------2---0-----------|---------2---0-------------------|
G|-----------------1-------2-------|-------------2-------------------|-----2-----------2---4---2-------|
D|---------4-------------------4---|-----0---4-------------------0---|-4---------------------------4---|
A|-----0-------0-------0-----------|-2-----------2-----------2-------|-2-----------2-------2---0-------|
D|-0-------------------------------|---------------------------------|---------------------------------|


   E   E   E   E   E   E   E   E     E   E   E   E   E   E   E   E     E   E   E   E   E   E   E   E
E|---------0-----------------------|---------------------------------|---------------------------------|
B|-----------------3---2-------0---|---------0-------2-------3-------|---------------------------------|
G|-1-------------------------------|---------1-------1-------1-------|-------------2---4---2-----------|
D|-----2-------2---------------2---|-----2---2-------2-------2-------|---------2-----------------------|
A|---------------------------------|---------------------------------|-0---4-------0-----------0---4---|
D|-2-----------------------2-------|-2-----------2-------2-------2---|---------------------------------|


   E   E   E   E   E   E   E   E     E   E   E   E   E   E   E   E     E   E   E   E   E   E   E   E
E|---------------------------------|---------------------------------|---------------------------------|
B|---------------------------------|---------2-------0---------------|-------------------------2-------|
G|-----2---4---2---1---2---1-------|---------------------2-----------|---------2-------4---------------|
D|-2---------------------------2---|-4---------------------------4---|-----------------------------4---|
A|-0-----------0-------0---2-------|-----0-------0-------------------|-----0-------0-------2-----------|
D|---------------------------------|-0-----------------------0-------|-0-------------------------------|


   E   E   E   E   E   E   E   E     E   E   E   E   E   E   E   E     E   E   E   E   E   E   E   E
E|---------------------------------|---------------------------------|---------------------------------|
B|-----------------2---0-----------|---------------------------------|---------------------------------|
G|-------------2---------------2---|-1-----------2-----------4-------|-2---2---2---2-------2-------2---|
D|-----0---4-----------------------|---------2-----------4-------2---|-2---2---2---2-------2-------2---|
A|-2-----------2-----------2-------|-----2-----------2---------------|-0---0---0---0-------0-------0---|
D|---------------------------------|-2-----------------------2-------|---------------------------------|

  1ST TIME                           2ND TIME
   E   E   E   E   E   E   E   E      E   E   E   E   E   E   E   E     S  S  E   E   Q    Q    E     
E|---------------------------------||---------------------------------|-----------------------------|
B|---------------------------------||-----------------2---2-------2---|-5--3--5------------0----1---|
G|-----2-------2---4---4---2---4--*||-----2-------2---2---2---4---2---|-----------2--------0----2---|
D|-----2-------2---2---2---2---2--*||-----2-------2---2---2---2---2---|--------------------3----3---|
A|-----0-------0---0---0---0---0---||-----0-------0---0---0---0---0---|---------------3-------------|
D|---------------------------------||---------------------------------|-3---------------------------|


   E   E   Q    Q    Q      S  S  E   E   Q    Q    E     E   E   Q    Q    Q
E|-------------------0----|-----------------------------|-------------------0----|
B|-L-------0----1----1----|-3--1--3------------0----1---|-L-------0----1----1----|
G|-L-------0----2---------|-----------0--------0----0---|-L-------0----2----0----|
D|-L---3-------------3----|---------------2---------2---|-L------------2----2----|
A|------------------------|-----------------------------|---------2--------------|
D|--------------3---------|-2---------------------------|-----2------------------|

 
   S  S  E   E   E   E   E   E   E     E   E   E   E   E   E   E   E     E   E   E   Q    E   E   E 
E|-----------------------0-----------|---------------------------------|------------------------------|
B|-5--3--5---------------0-------1---|---------0-------1-------3-------|-0-------1---0----------------|
G|-----------2---------------0---2---|---------0-------0-------0-------|-0-------0--------0-------0---|
D|-------------------0---------------|-----0-----------0-------0-------|-----2----------------2-------|
A|---------------0-------------------|---------------------------------|-3----------------------------|
D|-0---------------------------------|-5-----------5-------5-------5---|------------------------------|


   Q    E   Q    E   E   E     S  S  S   E   Q    Q    E     E   E   Q    Q    Q
E|-3----5---3----1---0-------|-----------------------------|-------------------0----|
B|---------------------------|-5--3--5------------0----1---|-L-------0----1----1----|
G|------0--------0-----------|-----------2--------0----2---|-L-------0----2---------|
D|-2---------------------2---|--------------------3----3---|-L---3-------------3----|
A|-3--------2----------------|---------------3-------------|------------------------|
D|---------------------------|-3---------------------------|--------------3---------|


   S  S  E   Q    E   Q    E     E   E   E   E   E   E   Q      S  S  E   E   E   E   E   E   E
E|-----------3-----------------|------------------------------|---------------------------0-------|
B|-3--1--3------------0----1---|---------3-------1-------0----|-1--0--1-----------1-------1-------|
G|-----------0--------0----0---|---------2-------0-------0----|-----------2-------2-------2-------|
D|-----------2----2--------2---|-----2-------------------2----|-------------------3---------------|
A|--------------------2--------|-0-----------0-------0--------|-----------------------------------|
D|-2---------------------------|------------------------------|-3-------------3-------3-------3---|


   E   E   E   E   E   E   E   E     E   E   E   Q    E   E   E     E   E   E   Q    E   E   E
E|---------0-----------------------|------------------------------|------------------------------|
B|-3-------3-------0-------3-------|------------------0---1---0---|-------------0----2-----------|
G|-4---------------4-------4-------|-2-------0---2--------2---0---|-2-----------2----------------|
D|-5---------------5---------------|-2---2-------2----------------|-2-------2--------------------|
A|---------------------------------|-0-----------0----------------|-0---4----------------4---2---|
D|-5---5-------5-------5-------5---|------------------------------|------------------------------|


    E   E   E   E   E   E   E   E     E   E   E   E   E   E   E   E     E   E   E   E   E   E   E   E
E||---------------------------------|---------------------------------|---------------------------------|
B||---------------------------------|---------------------------------|---------2-------0---------------|
G||*------------2---4---2-----------|-----2---4---2---1---2---1-------|---------------------2-----------|
D||*--------2-----------------------|-2---------------------------2---|-4---------------------------4---|
A||-0---4-------0-----------0---4---|-0-----------0-------0---2-------|-----0-------0-------------------|
D||---------------------------------|---------------------------------|-0-----------------------0-------|


   E   E   E   E   E   E   E   E     E   E   E   E   E   E   E   E     E   E   E   E   E   E   E   E
E|---------------------------------|---------------------------------|---------------------------------|
B|---------------------------------|-----------------2---0-----------|---------2---0-------------------|
G|-----------------1-------2-------|-------------2-------------------|-----2-----------2---4---2-------|
D|---------4-------------------4---|-----0---4-------------------0---|-4---------------------------4---|
A|-----0-------0-------0-----------|-2-----------2-----------2-------|-2-----------2-------2---0-------|
D|-0-------------------------------|---------------------------------|---------------------------------|


   E   E   E   E   E   E   E   E     E   E   E   E   E   E   E   E     E   E   E   E   E   E   E   E
E|---------0-----------------------|---------------------------------|---------------------------------|
B|-----------------3---2-------0---|---------0-------2-------3-------|---------------------------------|
G|-1-------------------------------|---------1-------1-------1-------|-------------2---4---2-----------|
D|-----2-------2---------------2---|-----2---2-------2-------2-------|---------2-----------------------|
A|---------------------------------|---------------------------------|-0---4-------0-----------0---4---|
D|-2-----------------------2-------|-2-----------2-------2-------2---|---------------------------------|


   E   E   E   E   E   E   E   E     E   E   E   E   E   E   E   E     E   E   E   E   E   E   E   E
E|---------------------------------|---------------------------------|---------------------------------|
B|---------------------------------|---------2-------0---------------|---------------------------------|
G|-----2---4---2---1---2---1-------|---------------------2-----------|-----------------1-------2-------|
D|-2---------------------------2---|-4---------------------------4---|---------4-------------------4---|
A|-0-----------0-------0---2-------|-----0-------0-------------------|-----0-------0-------2-----------|
D|---------------------------------|-0-----------------------0-------|-0-------------------------------|

                                      1ST TIME
   E   E   E   E   E   E   E   E     E   E   E   E   E   E   Q      E   E   E   E   E   E   E   E
E|---------------------------------|------------------------------|---------------------------------|
B|-----------------2---0-----------|------------------------------|---------------------------------|
G|-------------2---------------2---|-1-----------2-----------4----|-2---2---2---2-------2-------2---|
D|-----0---4-----------------------|-2-----------2-----------2----|-2---2---2---2-------2-------2---|
A|-2-----------2-----------2-------|------------------------------|-0---0---0---0-------0-------0---|
D|---------------------------------|-2-----------2-----------2----|---------------------------------|

                                      2ND TIME
   E   E   E   E   E   E   E   E      E   E   E   E   E   E   E   E     E   E   E   E   E   E   E   E
E|---------------------------------||---------------------------------|---------------------------------|
B|---------------------------------||---------------------------------|---------------------------------|
G|-----2-------2---4---4---2---4--*||*1-----------2-----------4-------|-2---2---2---2-------2-------2---|
D|-----2-------2---2---2---2---2--*||*--------2-----------4-------2---|-2---2---2---2-------2-------2---|
A|-----0-------0---0---0---0---0---||-----2-----------2---------------|-0---0---0---0-------0-------0---|
D|---------------------------------||-2-----------------------2-------|---------------------------------|


   E   E   E   E   E   E   E   E     E   E   E   E   E   E   E   E     
E|---------------------------------|---------------------------------||
B|-----------------2---2-------2---|---------------------------------||
G|-----2-------2---2---2---4---2---|-2-----------2-----------2---2--*||
D|-----2-------2---2---2---2---2---|-2-----------2-----------2---2--*||
A|-----0-------0---0---0---0---0---|-0-----------0-----------0---0---||
D|---------------------------------|---------------------------------||



[Key]
Q = Quarter Note
E = Eighth Note
S = Sixteenth Note
L = Tied Note
Login or Register to remove this ad.