Ads

Suspended (Yosuga no Sora) Guitar Tab

Submitted: Aug 05, 2016 by scarecrowlol (Last updated: Aug 06, 2021)

5
Average: 5 (6 votes)
Download | Listen
Game: Yosuga no Sora
Composer(s): Bruno Wen-Li, Manabu Miwa
Style: Arrangement, Fingerstyle

AutoScroll: Slow | Medium | Fast
Title: Suspended
SubTitle: Yosuga No Sora
Artist: Bruno Wen-Li & Manabu Miwa
Tabber: Mitch Jackson
Tempo = 58
T/S = 3/4

Left hand fingering is included in GP file as a guide

---------
LEGEND 
---------
L = Hold Previous Note
^ = Upstroke


     E  E  E  Q     E       E  E  E  Q.            E  E  E  E  E  E       E  E  E  Q.
E |-----------2----------|-----------5----------|-----------2----------|--------7--5----------|
B |--0--------------0----|--3-----3-------------|--0-----------3--0----|----------------------|
G |--------0-------------|--2-------------------|--------0-------------|--7-------------------|
D |-----0----------------|-----0----------------|-----0----------------|-----0----------------|
A |----------------------|----------------------|----------------------|----------------------|
D |--5-------------------|--4-------------------|--5-------------------|--4-------------------|

                    
     E  E  E  Q     E       E  E  E  Q.            E  E  E  E  E  E       E  E  E  Q.
  |-----------2----------|-----------5----------|-----------2----------|--------0-------------|
  |--0--------------0----|--3-----3-------------|--0-----------3--0----|--3--------3----------|
  |--------0-------------|--2-------------------|--------0-------------|--2--------2----------|
  |-----0----------------|-----0----------------|-----0----------------|-----0----------------|
  |----------------------|----------------------|----------------------|----------------------|
  |--5-------------------|--4-------------------|--5-------------------|--4-------------------|

                     
     E  E  E  E  E  E       E  E  E  E  E  E       E  E  E  E  E  E       E  E  E  E  E  E
  |--------2--2----------|----------------------|--------2--2----------|----------------------|
  |--0--------------3----|----------------------|--0--------------3----|-----------3----------|
  |--------0-------------|--4-----2--2----------|--------0-------------|--4-----2-------------|
  |-----0--------0-------|--------5--------4----|-----0--------0-------|--------5--------4----|
  |----------------------|-----2--------0-------|----------------------|-----2--------0-------|
  |--5--------4----------|--2--------0----------|--5--------4----------|--2--------0----------|

                                                                     
     E  E  E  E  E  E       E  E  E  E  E  E       E  E  E  E  S S E       E  E  E  E  E  E
  |--------2--2----------|----------------------|--------2--5----7-5----|----------------------|
  |--0--------------3----|----------------------|--0--------------------|-----------3----------|
  |--------0-------------|--4-----2--2----------|--------0--------------|--4-----2-------------|
  |-----0--------0-------|--------5--------4----|-----0--------0--------|--------5--------4----|
  |----------------------|-----2--------0-------|-----------------------|-----2--------0-------|
  |--5--------4----------|--2--------0----------|--0--------4-----------|--2--------0----------|

                                                                
     Q     E  Q.            E.  S S  Q.            Q     E  E.  S E       E  E  E  E  Q
  |--5-------------------|--5-----7--5----------|--5--------2---0------|--------------0-------|
  |--3-----3--3----------|-----------3----------|--3-----3--3-----3----|--3--0--3--3----------|
  |--0--------2----------|--7---7---------------|--0-------------------|--0--------2----------|
  |--0--------0----------|--5--------0----------|--0--------0----------|--0--------5----------|
  |----------------------|--5-------------------|----------------------|-----------0----------|
  |--5--------4----------|--5--------4----------|--5--------4----------|--2-------------------|

                                                                
     H           E  E       E  E  S S E  E  E       E  E  E  E  E  S S      E  S S S S E  E  S S
  |--L--------------5----|--7-----5-7-5-----0----|--2--5-------------0---|--2----2---2-0-------0---|
  |--L-----------7-------|--------0--------------|--------2--3-----3-----|---------3---------3-----|
  |--L-------------------|------------------2----|--------0--------------|---------4---------2-----|
  |--L-------------------|-----0---------0-------|-----0-----------4-----|-----0----------0--------|
  |--L-------------------|-----------------------|--------------5--------|-------------------------|
  |----------------------|--5---------4----------|--2--------0-----------|--5----------4-----------|

       
     E  S S S S E  E  E       E  E  S S E  E  E       E  E  E  E  E  E       E  E  E  E  E  S S
  |--2----2-3-5-0----------|--7-----5-7-5-----0----|--2-------------------|--10-9--5--2-----------|
  |------------------------|--------0--------------|--------2--3----------|--------0--------0-2---|
  |---------0---------2----|------------------2----|-----2--0-------------|-----------------2-----|
  |-----0----------2-------|-----0---------0-------|-----0-----------4----|-----0--------0--------|
  |-------------0----------|-----------------------|--------------5-------|-----------------------|
  |--2---------------------|--5---------4----------|--2--------0----------|--5--------4-----------|

                                                                
     E  E  E  E  E  E       E  E  E  E  E  E       E  E  E  E  E  E       Q.       E  E  E
  |-----------2----------|----------------------|--------5--5----------|--L--------5-----0----|
  |--3--2----------------|--0-------------------|--------0-------------|----------------------|
  |--------2-------------|--------0--------2----|-----------------2----|--L-----------2-------|
  |-----0-----------4----|--------------0-------|-----0--------2-------|--L-------------------|
  |--------------0-------|-----2----------------|-----------0----------|--L-------------------|
  |--2--------0----------|--2--------4----------|--5-------------------|----------------------|

                                     ^                               
     E  Q     E  E  E       E  E  E  Q.            H.
  |----------------------|----------------------|----------------------||
  |--3--------3----------|--3--------3----------|--L-------------------||
  |-----2-----4----------|--3--------2----------|--L-------------------||
  |--4--------5-----5----|--5-----5--4----------|--L-------------------||
  |--5-----------5-------|-----5-----0----------|--L-------------------||
  |----------------------|-----------0----------|--L-------------------||
Login or Register to remove this ad.

1 comment on Suspended

Very pretty, favorited!

Very pretty, favorited!