Ads

In the Midst Of Bewilderment (Yosuga no Sora) Guitar Tab

Submitted: Oct 06, 2013 by scarecrowlol (Last updated: May 08, 2021)

4.833335
Average: 4.8 (6 votes)
Download | Listen
Game: Yosuga no Sora
Composer(s): Bruno Wen-Li, Manabu Miwa
Style: Arrangement, Artificial harmonics, Fingerstyle

This song is also called Tomadoi no Naka / 戸惑い の 中

Click here for a video example.

AutoScroll: Slow | Medium | Fast
Title: In The Midst Of Bewilderment
SubTitle: Yosuga No Sora
Artist: Bruno Wen-Li & Manabu Miwa
Tabber: Mitch Jackson
Tempo = 92
T/S = 4/4

Left hand fingering is included in GP file as a guide

--------
LEGEND
--------
L = Hold Previous Note
^ = Upstroke
(?) = Ghost Note
<?> = Pinch Harmonic


     E  E  E  H           E       E  E  H.                     E  E  E  H           E       E  E  H.                                                        
E |-----7----------------------|--0--5--3-------------------|-----7----------------------|--------10------------------|
B |--10----7--8-----------3----|----------------------------|--10----7--8----------------|-----10---------------------|
G |--7-------------------------|-----0----------------------|-----------------------7----|--9-------------------------|
D |-----9----------------------|----------------------------|----------------------------|--------9-------------------|
A |----------------------------|--3-------------------------|-----7----------------------|-----9----------------------|
D |----------------------------|----------------------------|--7-------------------------|--9-------------------------|
                                                          

     E  E  E  H           E       E  E  H.                     E  E  E  E  E  E  E  E       E  E  H.                                                     
  |--5--7----------------------|--0--5--3-------------------|--0--2--3--5-----3--2-------|--0-------------------------|
  |--------7--8-----------3----|----------------------------|--------1--------------3----|--------0-------------------|
  |-----0----------------------|-----0--5-------------------|----------------------------|----------------------------|
  |----------------------------|----------------------------|-----2-----------4----------|-----2----------------------|
  |--7-------------------------|--3-------------------------|--0-----------2-------------|--3-------------------------|
  |----------------------------|----------------------------|----------------------------|----------------------------|

                                                          
     E  E  E  E  E  E  E  E       E  E  E  Q     Q.            E  E  E  E  E  E  E  E       E  E  E  E  H                                                     
  |--------2--3--5--3--2-------|--0--5----------------------|-----7----------------------|--------10------------------|
  |-----------3-----------3----|--------8-------------------|--10----7--8--------8-------|-----10---------------------|
  |--2--4----------------------|--------0--------7----------|-----------7--9--------7----|--9--------9--11------------|
  |--------2-------------------|-----0----------------------|--------7--------10---------|----------------------------|
  |-----2----------------------|-----------7----------------|-----7----------------------|-----9----------------------|
  |--2-------------------------|--5-------------------------|--7-------------------------|--9-------------------------|
                                                          
                                                                                            ^       P.H ->
     E  E  E  E  E  E  E  E       E  E  E  E  E  E  E  E       E  E  E  E  E  E  E  E       E  E  E  E  H                                                     
  |--------2--3--2-------------|-----5----------------------|--0--2--3--5--0--3--2-------|--0----------<0>------------|
  |-----------3-----3----------|--5-----8-----------5--8----|--------1--------------3----|--0-----1-------------------|
  |--2--4--------------4-------|-----------------7----------|----------------------------|--0--0----<0>---------------|
  |--------2--------------2----|-----------5--7-------------|-----2-----------4----------|----------------------------|
  |-----2----------------------|-----5--7-------------------|--0-----------2-------------|--3-------------------------|
  |--2-------------------------|--5-------------------------|----------------------------|----------------------------|
   
                                  ^                                        ^                ^ 
     H           H                E  E  E  E  Q.      S S      E  E  Q     H                E  E  E  E  Q.      S S                                                 
  |--L-------------------------|-----2----------------5-3---|--5-------------------------|--------3-------------2-3---|
  |--L-------------------------|--0--------0-(0)------------|-----3----------------------|--0--1-----1-(0)------------|
  |--L-------------------------|--0-----2----(2)------------|--------4----(4)------------|--0-----0--2-(0)------------|
  |----------------------------|--2----------(2)------------|-----5-------(5)------------|-----2-------(2)------------|
  |--L-------------------------|----------------------------|--3----------(3)------------|--0-------------------------|
  |----------------------------|----------------------------|----------------------------|----------------------------|
                                                    
                 ^                ^                            ^           ^    
     E  E  E  E  H                E  E  E  E  Q.      S S      E  E  Q     H                E  E  E  E  E  E  E  E                       
  |--2-------------------------|-----2----------------5-3---|--5-------------------------|--------0--3--2-------------|
  |-----3----------------------|--0--------0-(0)------------|-----3----------------------|--1--3-----------3--0-------|
  |--------4--2-(4)------------|--0-----2----(2)------------|--4-----4----(4)------------|--0-----------2--------2----|
  |-----4-------(4)------------|--2----------(2)------------|--5----------(5)------------|--------2-----------4-------|
  |--2----------(2)------------|----------------------------|--3----------(3)------------|----------------------------|
  |----------------------------|----------------------------|----------------------------|----------------------------|
                                                    
                                                                                            ^ 
     E  E  E  E  E  E  E  E       E  E  E  E  E  E  E  E       E  E  E  E  E  E  E  E       E  E  E  E  E  E  E  E                                                          
  |--------0--7--5--2--0-------|--2--------3--5--7--2-------|--2--------3--5--7--2-------|--2--------3--5--7--2-------|
  |--1--3-----------------3----|-----0--3--------------3----|-----0--3--------------3----|-----0--3--------------3----|
  |----------------------------|----------------------------|----------------------------|--0-------------------------|
  |--------------0-------------|--2-------------------------|--2-------------------------|--2-------------------------|
  |--3-------------------------|----------------------------|----------------------------|----------------------------|
  |----------------------------|----------------------------|----------------------------|----------------------------|
                                                        
     ^
     E  E  E  E  E  E  E  E       E  E  E  E  E  E  E  E       E  E  E  E  E  E  E  E       E  E  E  E  E  E  E  E                                                       
  |--2--------3--5--7--2-------|--------2--3-----3--2-------|--0--5--3-------------------|-----7----------------------|
  |--0--0--3--------------3----|--------------3--------3----|--------------3--0----------|--10----7--8-----------8----|
  |--0-------------------------|--2--4-----4----------------|-----0-----2--------0-------|-----------------7--9--7----|
  |--2-------------------------|--------2-------------------|-----------------------2----|--------7--9--10------------|
  |----------------------------|-----2----------------------|--3-------------------------|-----7----------------------|
  |----------------------------|--2-------------------------|----------------------------|--7-------------------------|

                                                          
     E  E  E  E  E  E  E  E       E  E  E  E  E  E  E  E       E  E  E  E  E  E  E  E       E  E  E  E  E  E  E  E                                                        
  |--------10------------------|--------2--3----------------|--0--5--3-----0-------------|--0--2--3--5--0--3--2-------|
  |-----10-------------10-12---|-----------3--5-------------|--------0--3-----------0----|--------1--------------3----|
  |--9-----------9--11---------|--2--4--------------2--4----|-----0-----------0--2-------|--------------------4-------|
  |-----------12---------------|--------2--------5----------|----------------------------|-----2-----------4----------|
  |-----9----------------------|-----2----------------------|--3-------------------------|--0-----------2-------------|
  |--9-------------------------|--2-------------------------|----------------------------|----------------------------|
                                                          
     ^
     E  E  E  E  E  E  E  E       E  E  E  E  E  E  E  E       E  E  E  E  E  E  E  E       E  E  E  E  E  E  E  E 
  |--0-----------2--3--5--7----|--------------2--3--5--7----|--------------2--3--5--7----|--------------2--3--5--7----|
  |--------0--3----------------|--------0--3----------------|--------0--3----------------|--------0--3----------------|
  |--0-------------------------|----------------------------|----------------------------|----------------------------|
  |--2--2----------------------|-----2----------------------|-----2----------------------|-----2----------------------|
  |----------------------------|----------------------------|----------------------------|----------------------------|
  |--2-------------------------|--2-------------------------|--2-------------------------|--2-------------------------|


     W
  |--L-------------------------||
  |--L-------------------------||
  |----------------------------||
  |--L-------------------------||
  |----------------------------||
  |--L-------------------------||



I personally like to play these certain bars as a right hand tap and slide on the 5 & 7 
so i can maintain the bass note

                 T                                      T
     E  E  E  E  E  E  E  E           E  E  E  E  E  E  E  E   
  |--2--------3--5s-7--2-------|   |--------------2--3--5s-7----|
  |-----0--3--------------3----|   |--------0--3----------------|
  |----------------------------|   |----------------------------|
  |--2-------------------------|   |-----2----------------------|
  |----------------------------|   |----------------------------|
  |----------------------------|   |--2-------------------------|
Login or Register to remove this ad.

2 comments on In the Midst Of Bewilderment

Good job sir

Good job sir

Thank you ^_^

Thank you ^_^