Ads

Deep Inside Region (Yosuga no Sora) Guitar Tab

Submitted: Apr 30, 2013 by scarecrowlol

5
Average: 5 (4 votes)
Download | Listen
Game: Yosuga no Sora
Composer(s): Bruno Wen-Li, Manabu Miwa
Style: Arrangement, Fingerstyle

AutoScroll: Slow | Medium | Fast
Title: Deep Inside Region
SubTitle: Yosuga No Sora
Artist: Bruno Wen-Li, Manabu Miwa
Tabber: Mitch Jackson
Tempo = 112
T/S = 4/4

TUNING = Drop 'D'

ORIGINAL SONG = https://www.youtube.com/watch?v=e4s4jMqA4po


     E  E  E  Q     Q     E       Q.      S S E  E  E  E       E  E  E  Q     E     E       W                          
E |--------3-------------------|----------------------------|--------3-------------------|----------------------------|
B |--0--1-----1-----3----------|----------3h5h3--1--0-------|--0--1-----1-----3----------|----------------------------|
G |-----------------------0L---|--L--------------------0----|-----------------------0L---|--0-------------------------|
D |-----2----------------------|----------------------------|----------------------------|----------------------------|
A |--0-------------------------|----------------------------|-----3----------------------|----------------------------|
D |----------------------------|----------------------------|--3-------------------------|----------------------------|

                                                     
                                                                                                     ^
     E  E  E  Q     Q     E       Q.      S S E  E  E  E       E  E  E  Q     Q     E       Q.       H           E     
  |--------3-------------------|----------------------------|--------3-------------------|-----------0L----------L----|
  |--0--1-----1-----3----------|----------3h5h3--1--0-------|--0--1-----1-----3----------|-----------3L----------L----|
  |-----------------------0L---|--L--------------------0----|-----------------------0L---|--L--------2L----------L----|
  |-----2----------------------|----------------------------|----------------------------|-----------0L----------L----|
  |--0-------------------------|----------------------------|-----3----------------------|----------------------------|
  |----------------------------|----------------------------|--3-------------------------|-----------5L----------L----|

                                                     

     H.                E  E       E  E  E  Q.       E  E       E  E  E  Q.       Q          E  E  E  E  H              
  |--L-------------------------|-----------------------0----|----------------------------|-----------0L-L-------------|
  |--L-------------------------|--1--------1--------3-------|--3--------0----------------|----------------------------|
  |--L-----------------2--4----|--------4-------------------|--------0--2--------0-------|--2--------2L-L-------------|
  |--L-------------------------|-----2----------------------|-----2----------------------|--------2-------------------|
  |----------------------------|--0-------------------------|--0-------------------------|-----3----------------------|
  |--L-------------------------|----------------------------|----------------------------|--3-------------------------|

                                                          

     E  E  E  E  Q     E  E       E  E  E  E  Q     E  E       E  E  E  Q.       Q          E  E  E  E  H              
  |----------------------------|--0-----------------3--5----|--3-------------------------|----------------------------|
  |--------------------1--3----|-----------1L-L-------------|-----------1--------0-------|----------------------------|
  |-----------2L-L-------------|--------4-------------------|--------0--2----------------|--2--------0L-L-------------|
  |--------2-------------------|-----2----------------------|-----2----------------------|--------2-------------------|
  |-----3----------------------|--0-------------------------|--0-------------------------|-----3----------------------|
  |--3-------------------------|----------------------------|----------------------------|--3-------------------------|

                                                          

     E  E  E  E  Q.       E       E  E  E  E  Q     E  E       E  E  E  E  Q.       E       E  E  E  E  H              
  |-----------0L-L--------3----|--5--3--5-------------------|-----3-----------------3----|--3-------------------------|
  |----------------------------|--------------------0--1----|--1--------1L-L-------------|--------3--1L-L-------------|
  |--------2-------------------|-----------5L-L-------------|--------0-------------------|----------------------------|
  |----------------------------|-----0--3-------------------|-----2----------------------|----------------------------|
  |-----3----------------------|----------------------------|----------------------------|-----3----------------------|
  |--3-------------------------|--0-------------------------|--2-------------------------|--3-------------------------|

                                                          

     E  E  E  E  Q.       E       E  E  E  E  Q     E  E       E  E  E  E  Q.       E       E  E  E  E  H              
  |-----------------------3----|--5--3--5-------------------|-----3-----------------3----|--3-------------------------|
  |----------------------------|--------------------0--1----|--1--------1L-L-------------|--------3--1L-L-------------|
  |-----------2L-L-------------|-----------5L-L-------------|--------0-------------------|----------------------------|
  |--------2-------------------|-----0--3-------------------|-----2----------------------|----------------------------|
  |-----3----------------------|----------------------------|----------------------------|-----3----------------------|
  |--3-------------------------|--0-------------------------|--2-------------------------|--3-------------------------|

                                                          

     E  E  E  E  H                E  E  E  E  H                E  E  E  E  H                E  E  E  E  H              
  |----------------------------|--0--------0L-L-------------|-----------0L-L-------------|-----------0L-L-------------|
  |-----------3--3-------------|--------3-------------------|--------3-------------------|--------3-------------------|
  |--------1-------------------|-----0----------------------|-----0----------------------|-----0----------------------|
  |-----3----------------------|----------------------------|----------------------------|----------------------------|
  |----------------------------|--3-------------------------|--3-------------------------|--3-------------------------|
  |--3-----------3-------------|----------------------------|----------------------------|----------------------------|

                                                          

     E  E  E  E  H                E  E  E  Q     E  E  E       E  Q     E  E  E  Q          E  E  E  Q.       Q        
  |-----------0L-L-------------|--0--------0--------0--1----|-----0----------------------|-----------0----------------|
  |--------3-------------------|--------1--------3----------|-----------3--1--1L-L-------|----------------------------|
  |-----0----------------------|--0--0-----0----------------|-----0----------------------|--2--------2--------2-------|
  |----------------------------|----------------------------|-----------------2L-L-------|--------3-------------------|
  |--3-------------------------|--3-------------------------|--3-------------------------|-----3----------------------|
  |----------------------------|----------------------------|----------------------------|--3-------------------------|

                                                          

     E  E  E  E  H                E  E  E  Q     E  E  E       E  E  E  E  E  Q.            E  E  E  E  H              
  |-----------0L-L-------------|--0--------0--------0--1----|-----0----------------------|--3-------------------------|
  |-----1--3-------------------|--------1--------3----------|--------1--3--1--1----------|--3-------------------------|
  |----------------------------|--0--0-----0----------------|-----0-----0----------------|--------0--4L-L-------------|
  |----------------------------|----------------------------|-----------------2----------|-----0----------------------|
  |-----3----------------------|--3-------------------------|--3-------------------------|----------------------------|
  |--3-------------------------|----------------------------|----------------------------|--5-------------------------|

                                                          

     E  E  E  E  E  E  E  E       E  E  E  Q     E  Q          E  E  E  Q     Q.            E  E  E  Q     Q     E     
  |----------------------------|----------------------------|--0--------------0----------|----------------------------|
  |--------------5--3-----3----|--1--------------1--3-------|--------1--3----------------|--1--------------1-----0----|
  |--------0--4--------5-------|--------2--0----------------|-----0----------------------|--------2--0----------------|
  |-----0----------------------|-----2----------------------|----------------------------|-----3----------------------|
  |----------------------------|----------------------------|--3-------------------------|----------------------------|
  |--5-------------------------|--3-------------------------|----------------------------|--0-------------------------|

                                                          

     E  E  E  Q     E  Q          E  E  E  Q     Q.            E  E  E  Q     Q.            E  E  E  Q     Q     E     
  |--3-------------------------|--0--------------0----------|-----------------0----------|--------3-------------------|
  |-----------0-----1--3-------|-----------1----------------|-----------1----------------|--1--------1-----3----------|
  |--------0-------------------|--------2-------------------|--------2-------------------|-----------------------0----|
  |-----2----------------------|-----3----------------------|-----3----------------------|-----2----------------------|
  |----------------------------|----------------------------|----------------------------|--0-------------------------|
  |--2-------------------------|--3-------------------------|--3-------------------------|----------------------------|

                                                          

     Q.      S S E  E  E  E       E  E  E  Q     Q     E       H           H                E  E  E  Q     Q     E     
  |--------------0-------------|--------3-------------------|--------------3-------------|--------3-------------------|
  |--1-------3h5h3--1--0-------|--1--------1-----3----------|--1-------------------------|--1--------1-----3----------|
  |-----------------------0----|-----------------------0----|----------------------------|-----------------------0----|
  |----------------------------|----------------------------|----------------------------|-----2----------------------|
  |----------------------------|-----3----------------------|----------------------------|--0-------------------------|
  |----------------------------|--3-------------------------|----------------------------|----------------------------|


                                                                        ^
     Q.      S S E  E  E  E       E  E  E  Q     Q     E       Q.       H           E       W                           
  |--------------0-------------|--------3-------------------|-----------3L----------L----|--L-------------------------||
  |--1-------3h5h3--1--0-------|--1--------1-----3----------|--1--------3L----------L----|--L-------------------------||
  |-----------------------0----|-----------------------0----|-----------0L----------L----|--L-------------------------||
  |----------------------------|----------------------------|-----------0L----------L----|--L-------------------------||
  |----------------------------|-----3----------------------|-----------5L----------L----|--L-------------------------||
  |----------------------------|--3-------------------------|-----------5L----------L----|--L-------------------------||

                                       
Login or Register to remove this ad.