Ads

Already Day 10? (Yosuga no Sora) Guitar Tab

Submitted: Dec 11, 2021 by scarecrowlol (Last updated: Dec 11, 2021)

5
Average: 5 (2 votes)
Download | Listen
Game: Yosuga no Sora
Composer(s): Bruno Wen-Li, Manabu Miwa
Style: Arrangement, Fingerstyle

Click here for a video example.

AutoScroll: Slow | Medium | Fast
Title: Already Day 10?
SubTitle: Yosuga No Sora
Artist: Bruno Wen-Li & Manabu Miwa
Tabber: Mitch Jackson
Tempo = 96
T/S = 4/4

Left hand fingering is included in GP file as a guide
All the note durations without a corresponding fret number below it are rest notes

--------
LEGEND
--------
h = Hammer On
p = Pull Off
|--3--| = Triplet


    ♪♫•*¨*•.¸¸ CAPO 5 ¸¸.•*¨*•♫♪

   
                       |--3--|                                                      |--3--|
     E  E  E  E  E  E  Q     E       E  E  E  E  E  Q.            E  E  E  E  E  E  Q     E       E  E  E  E  E  Q.
E |--2----------------------------|--0-------------------------|-------------------------------|----------------------------|
B |--------------3-----------3----|--------------2-------------|-------------------------------|----------------------------|
G |--------2----------------------|--------2-------------------|-------------------------------|----------------------------|
D |-------------------------------|----------------------------|--4-----------0-----------0----|--2-------------------------|
A |-------------------------------|----------------------------|--------0----------------------|--------0-----4-------------|
D |-------------------------------|----------------------------|-------------------------------|----------------------------|


                       |--3--|                                    |--3--|  |--3--|        |--3--|       |--3--|
     E  E  E  E  E  E  Q     E       E  E  E  E  E  E  E  E       E  E  E  E  E  E  E  E  E  E  E       E  E  E  E  E  E  E  E  E
  |--5-----------2-----------2----|--5-----------0-------------|-----------2-------------------------|-----------0-------------------|
  |--7-----3-----3-----------3----|--5-----2-----2-------------|-----------------3-------------------|-----------2-------------------|
  |--------2----------------------|--------2-------------------|--------2-----------2--------2-------|--------2--------------2-------|
  |-------------------------------|----------------------------|--------------------------0-----0----|-------------------------------|
  |-------------------------------|--------------------0-------|-------------------------------------|--0--------------0-------------|
  |-------------------------------|----------------------------|--0----------------------------------|-------------------------------|

        
     |--3--|  |--3--|        |--3--|       |--3--|  |--3--|                  |--3--|  |--3--|  |--3--|  |--3--|       |--3--|  |--3--|  |--3--|  |-3|
     E  E  E  E  E  E  E  E  E  E  E       E  E  E  E  E  E  E  Q.           E  E  E  E  E  E  E  E  E  E  E  E       E  E  E  E  E  E  E  E  E  E  Q
  |-----------5-----2-------------------|-----5--4--3---------------------|-----------5--3--2-----2--0-------------|--------------------0-------------------|
  |--------------------3----------------|---------------------------------|--------------------3--------3----------|--------------3--2----------------------|
  |--------2--------------------2-------|--2-----------0------------------|--------2-------------------------------|-----------2----------------------------|
  |--------------------------0-----0----|---------------------------------|-----4-----0--------0--------0----------|--------2--------------------2----------|
  |-------------------------------------|-----------------4--0------------|--5-----------------------------4--2----|--0--------0--------------0-------------|
  |--0----------------------------------|---------------------------------|--0-------------------------------------|----------------------------------------|


     |--3--|  |--3--|  |--3--|  |--3--|       |--3--|  |--3--|                  |--3--|  |--3--|  |--3--|  |--3--|       |--3--|  |--3--|  |--3--|  |--3--|
     Q     E  Q     E  Q     E  Q     E       E  E  E  E  E  E  E  Q.           Q     E  Q     E  Q     E  E  E  E       Q     E  E  E  E  Q     E  Q     E
  |-----------------------------0----------|---------------------------------|-----------------5-----------2--0-------|-----------2h-3p-2--5-----2--0----------|
  |--0--------2--------3-------------------|---------------------------------|--3--------------0--3--------------3----|-----------------------------------3----|
  |----------------------------------------|-----2--2--2--2--2--2------------|--------------------------4-------------|--2-------------------------------------|
  |-----------------------------------2----|---------------------------------|--------4--0--------------4--2----------|--------4--------------------------0----|
  |-----------0-----1--2-----3--4----------|-----------0---------------------|--------------------0-------------------|----------------------------------------|
  |--5-----6-------------------------------|--0-----------------0------------|--5-------------------------------------|--0-----------------0-------------------|


     |--3--|  |--3--|  |--3--|  |--3--|       |--3--|  |--3--|  |-------3------|       |--3--|  |--3--|  |--3--|  |--3--|       |--3--|  |--3--|  |--3--|  |--3--|
     Q     E  Q     E  Q     E  E  E  E       Q     E  E  E  E  Q     Q     E  E       E  E  E  E  E  E  E  E  E  E  E  E       E  E  E  E  E  E  E  E  E  Q     E
  |--0--------------5-----------2--0-------|--0-----------0--7--5-------------------|----------------------------------------|----------------------------------------|
  |--------0--------0--3--------------3----|--------------------------2--------2----|-----------------0----------------------|----------------------------------------|
  |--------------------------0-------------|-----------2--------------2--------2----|-----------------------------------2----|--------------------------2--------2----|
  |--------4--0--------------0--0----------|--------0-------------------------------|-----------0-----------------0----------|--------------------------4--------4----|
  |--------------------1-------------------|--0-----------------0-------------------|--2-----4-----------0-----4-------------|--------------0-----------5--------5----|
  |--5-------------------------------------|----------------------------------------|--5-----------------4-------------------|--5-----4--5-----2--0-------------------|


     |--3--|  |--3--|  |--3--|  |--3--|       |--3--|  |--3--|  |--3--|  |--3--|       |--3--|  |--3--|  |--3--|  |--3--|       |--3--|  |--3--|  |--3--|  |--3--|
     E  E  E  E  E  E  E  E  E  E  E  E       E  E  E  E  E  E  E  E  E  Q     E       E  E  E  E  E  E  E  E  E  E  E  E       E  E  E  E  E  E  E  E  E  Q     E
  |----------------------------------------|----------------------------------------|----------------------------------------|----------------------------------------|
  |--0-----2--3--------------2--3----------|-----------------0----------------------|--0-----2--3--------------2--3----------|----------------------------------------|
  |--------------------2-------------------|--0--------0--2-----2-------------------|--------------------2-------------------|--0--------0--2-----------2--------2----|
  |----------------------------------------|--------4-----------------0--------0----|--------4--------4--------0--------0----|--------4--------2--0-----4--------4----|
  |----------------------------------------|--------5--0----------------------------|----------------------------------------|--------5--0--------------5--------5----|
  |--5--------------5--4--------------4----|--2-----------------0-------------------|--5-----------------4-------------------|--2-----------------0-------------------|


     |--3--|  |--3--|  |--3--|  |--3--|       |--3--|  |--3--|  |--3--|             |--3--|  |--3--|  |--3--|  |--3--|       |--3--|  |--3--|  |--3--|
     E  E  E  E  E  E  E  E  E  E  E  E       Q     E  E  E  E  Q     E  Q          E  E  E  E  E  E  E  E  E  E  E  E       Q     E  E  E  E  Q     E  Q
  |----------------------------------------|-------------------------------------|----------------------------------------|-------------------------------------||
  |--0--2--3-----2--3--------0-------------|-------------------------------------|--0--2--3-----2--3--------0-------------|-------------------------------------||
  |-----------2--------0--2-----2----------|-------------------------------------|--0--------2--------0--2-----2----------|-------------------------------------||
  |--------------------------------4--2----|--0--------4--2--0--0----------------|-----------4--------2-----------4--2----|--0--------4--2--0--0----------------||
  |----------------------------------------|-----------0-------------------------|-----------------------------5----------|-----------0-------------------------||
  |--5--------4--------2--------0----------|--5-----------------0----------------|----------------------------------------|--5-----------------0----------------||

Login or Register to remove this ad.