Ads

Nephilim (Eric E. Hache Version) (Xenosaga) Guitar Tab

Submitted: Jun 11, 2017 by Coolbreeze (Last updated: Jun 13, 2017)

5
Average: 5 (2 votes)
Download | Listen
Game: Xenosaga
Composer(s): Yasunori Mitsuda
Style: 2 or more instruments, Arrangement, Transcription
Series: Xeno

AutoScroll: Slow | Medium | Fast
				 Nephilim
				~Xenosaga~

Music by Yasunori Mitsuda
Arranged by Eric E. Hache
Tabbed by Coolbreeze
Tempo = 84

Standard Tuning


Guitar 1

     H         Q        Q     Q     Q        Q     Q     Q     
E||-----------------|--13----13----13----|--13----12----12----|
B||-----------10----|--------------------|--------------------|
G||-----------------|--------------------|--------------------|
D||-----------------|--------------------|--------------------|
A||-----------------|--------------------|--------------------|
E||-----------------|--------------------|--------------------|


   E   E  E   E   E   E     Q    Q    Q       E  E  E  E  E  E   
--12--10--9--10--12--13--|--7----7---------|--7--5--4--5--9--7--|
-------------------------|-----------------|--------------------|
-------------------------|-----------------|--------------------|
-------------------------|-----------------|--------------------|
-------------------------|-----------------|--------------------|
-------------------------|-----------------|--------------------|


   Q     Q    Q         H        E  T  T  S    H        Q     
--12----10----4----|--4g5--------4--Lh-5p-4-|--2--------4----|
-------------------|------------------------|----------------|
-------------------|------------------------|----------------|
-------------------|------------------------|----------------|
-------------------|------------------------|----------------|
-------------------|------------------------|----------------|


  E  E  E  E  E  E     Q    Q    Q       E  E  E  E  E  E     Q     Q    Q     
--5--4-----0-----9--|--7----4---------|--5--4-----0-----9--|--7----12----5----|
--------7-----7-----|-------5---------|--------7-----7-----|-------------5----|
--------------------|-----------------|--------------------|------------------|
--------------------|-----------------|--------------------|------------------|
--------------------|-----------------|--------------------|------------------|
--------------------|-----------------|--------------------|------------------|


  H        Q       H.              E  E  E  E  E  E     Q    H         
--4-------------|---------------|--5--4-----0-----9--|--7----4--------|
----------------|---------------|--------7-----7-----|----------------|
----------------|---------------|--------------------|----------------|
----------------|---------------|--------------------|----------------|
----------------|---------------|--------------------|----------------|
----------------|---------------|--------------------|----------------|


  E  E  E  E  E  E     Q     Q    Q       Q      H           Q.     E  E  E   
--5--4-----0-----9--|--7----12----5----|--4----8g9--------|---------7--5--7--|
--------7-----7-----|------------------|------------------|------------5-----|
--------------------|------------------|------------------|------------------|
--------------------|------------------|------------------|------------------|
--------------------|------------------|------------------|------------------|
--------------------|------------------|------------------|------------------|


   E   H         E     H          Q       E  E  E  E  Q       E  E  E  E  Q     
--------------------|------------------|-------------------|--4-----7--4-------|
--------------------|-----------2g3----|--2----------------|-----7--------7----|
--13--13s--------0--|------------------|--------1--2--4----|-------------------|
--------------------|--2---------------|-----4-------------|-------------------|
--------------------|------------------|-------------------|-------------------|
--------------------|------------------|-------------------|-------------------|


    Q    Q.     E     Q    Q.     E       Q    Q    Q       Q    Q    Q     
--4g5----4---------|--5----4---------|--5g7----5----4----|--0---------2----|
----------------5--|--------------5--|-------------------|-------2---------|
-------------------|-----------------|-------------------|-----------------|
-------------------|-----------------|-------------------|-----------------|
-------------------|-----------------|-------------------|-----------------|
-------------------|-----------------|-------------------|-----------------|


    Q    Q.     E     Q    Q.     E       Q    Q    Q       Q    Q    Q     
--4g5----4---------|--5----4---------|--5g7----5----9----|--4---------7----|
----------------5--|--------------5--|-------------------|-------7---------|
-------------------|-----------------|-------------------|-----------------|
-------------------|-----------------|-------------------|-----------------|
-------------------|-----------------|-------------------|-----------------|
-------------------|-----------------|-------------------|-----------------|


  Q    E   S S  S  S S  S     Q     Q     Q        Q    Q.      E   
---------------------8-12-|--14----16----17----|--16-----------14--|
--7----------9-10-12------|--------------------|-------------------|
----------11--------------|--------------------|-------------------|
--------------------------|--------------------|-------------------|
--------------------------|--------------------|-------------------|
--------------------------|--------------------|-------------------|


   Q    H               Q     Q     Q        Q     Q     Q     
--13-------------|--12g13----13----13----|--13----12----12----|
-----------------|-----------------------|--------------------|
-----------------|-----------------------|--------------------|
-----------------|-----------------------|--------------------|
-----------------|-----------------------|--------------------|
-----------------|-----------------------|--------------------|


   E   E  E   E   E   E     Q    Q    Q       E  E  E  E  E  E   
--12--10--9--10--12--13--|--7----7---------|--7--5--4--5--9--7--|
-------------------------|-----------------|--------------------|
-------------------------|-----------------|--------------------|
-------------------------|-----------------|--------------------|
-------------------------|-----------------|--------------------|
-------------------------|-----------------|--------------------|


   Q     Q    Q         Q    H           H        Q         Q    Q    Q     
--12----10----4----|--4g5-------------|----------------|--4g5----4---------|
-------------------|------------------|--7-------------|--------------5----|
-------------------|------------------|----------------|-------------------|
-------------------|------------------|----------------|-------------------|
-------------------|------------------|----------------|-------------------|
-------------------|------------------|----------------|-------------------|


  H        E  E     Q    Q    Q       Q    Q    Q       Q    S  S Q.      
-----------------|--5----4---------|-----------------|-------------------|
--------------3--|------------5----|-------5---------|-------------------|
--4--------2-----|-----------------|--4---------2----|--1----4s-6-L------|
-----------------|-----------------|-----------------|-------------------|
-----------------|-----------------|-----------------|-------------------|
-----------------|-----------------|-----------------|-------------------|


  H.                Q    Q    Q       H.                Q    Q    Q     
---------------|--4g5----4---------|---------------|--4g5----4---------|
---------------|--------------5----|---------------|--------------5----|
---------------|-------------------|--4------------|-------------------|
---------------|-------------------|---------------|-------------------|
---------------|-------------------|---------------|-------------------|
---------------|-------------------|---------------|-------------------|


  Q    Q    Q       Q    Q.     E     Q.     E  Q       Q.     E  E  E   
-----------------|-----------------|-----------------|---------------0--|
-------5---------|-------2------0--|--L------0--2----|--0---------------|
--4---------2----|--1--------------|-----------------|---------0--2-----|
-----------------|-----------------|-----------------|------------------|
-----------------|-----------------|-----------------|------------------|
-----------------|-----------------|-----------------|------------------|


  Q.     E  E  E     E  E  E  E  E  E     E  E  E  E  E  E   
---------------0--|--0-----0--5--0-----|--------0--5--0-----|
--3------2--3-----|-----3-----------3--|-----3-----------3--|
------------------|--------------------|--2-----------------|
------------------|--------------------|--------------------|
------------------|--------------------|--------------------|
------------------|--------------------|--------------------|


  E  E  E  E  E  E     H.              H.             
--------0--5--0-----|---------------|---------------||
-----3-----------3--|---------------|---------------||
--2-----------------|--2------------|---------------||
--------------------|---------------|---------------||
--------------------|---------------|---------------||
--------------------|---------------|---------------||




Guitar 2

     H.              E  E  E  E  E  E     Q    E  E  E  E   
E||---------------|--------------1-----|-------------1-----|
B||---------------|--------3--------3--|-------3--------3--|
G||---------------|-----2-----2--------|--3-------3--------|
D||---------------|--0-----------------|-------------------|
A||---------------|--------------------|-------------------|
E||---------------|--------------------|-------------------|


  E  E  E  E  E  E     Q    E  E  Q       E  E  E  E  E  E   
--------------0-----|-------------0----|--------------------|
--------3--------3--|-------3----------|--------------2-----|
-----2-----2--------|----------2-------|--------2--------2--|
--0-----------------|--0---------------|-----------4--------|
--------------------|------------------|-----4--------------|
--------------------|------------------|--2-----------------|


  Q    E  E  E  E     E  E  E  E  E  E     H        E  E     Q    E  E  E  E   
-------------2-----|--------------------|--2--------------|-------------2-----|
-------2--------2--|--------------2-----|-----------------|-------3--------3--|
----------2--------|-----------2-----2--|-----------------|----------2--------|
--3----------------|--------4-----------|-----------------|--0----------------|
-------------------|-----4--------------|--------------0--|-------------------|
-------------------|--2-----------------|-----------------|-------------------|


  E  E  E  E  E  E     Q    E  E  E  E     E  E  E  E  Q     
--------0-----------|-------------0-----|--------------0----|
--------------3-----|-------3--------3--|--------3-----0----|
-----2-----------2--|----------2--------|-----2-----2-------|
--0--------0--------|--0----------------|--0----------------|
--------------------|-------------------|-------------------|
--------------------|-------------------|-------------------|


  E  E  E  E  E  E     Q    E  E  E  E     E  E  E  E  E  E   
--------------0-----|-------------0-----|--------------2-----|
-----------2-----0--|--2----2--------0--|--------3--------3--|
--------2-----------|----------2--------|-----2-----2--------|
-----2--------------|-------------------|--0-----------------|
--0-----------------|--0-------------0--|--------------------|
-----------------0--|-------------0-----|--------------------|


  Q    E  E  E  E     E  E  E  E  E  E     E  E  E  E  E  E   
-------------2-----|--------------0-----|--------2-----------|
-------3--------3--|--------3--------3--|--------------3-----|
-------2--2--------|-----2-----2--------|-----2-----------2--|
--0----------------|--0-----------------|--0--------0--------|
-------------------|--------------------|--------------------|
-------------------|--------------------|--------------------|


  E  E  E  E  E  E     E  E  E  E  E  E     E  E  E  E  E  E   
--------------------|--------------0-----|--------------0-----|
--------------2-----|--------2--------2--|--------2--------2--|
--------2--------2--|-----2-----2--------|-----2-----2--------|
-----2--2--2--------|--3-----------------|--2-----------------|
--0-----------------|--------------------|--------------------|
--------------------|--------------------|--------------------|


  Q    E  E  E  E     E  E  E  E  E  E     E  E  E  E  E  E   
-------------0-----|--------------2-----|--------------0-----|
-------2--------2--|--2-----2--------2--|--------2--------2--|
----------2--------|-----------2--4-----|-----------2--------|
--2----------------|-----4--------------|--------------------|
--0----------------|-----4--------------|-----4-----------4--|
-------------------|--2-----------------|--2-----------------|


  E  E  E  E  E  E     E  E  E  E  E  E     E  E  E  E  E  E   
--------------0-----|--------------0-----|--------------2-----|
--------3--------3--|--------3--------3--|--------2--------2--|
-----2-----2--------|-----2-----2--------|-----------2--------|
--0-----------------|--0-----------------|--------------------|
--------------------|--------------------|-----4-----------4--|
--------------------|-----------------0--|--2-----------------|


  E  E  E  E  E  E     E  E  E  E  E  E     Q    E  E  E  E   
--------------------|--------------0-----|-------------0-----|
--------------2-----|--------3--------3--|-------3--------3--|
-----------2-----2--|-----2-----2--------|----------2--------|
--------4-----4-----|--0-----------------|--0----------------|
-----4--------------|-----------------0--|-------------------|
--2-----------------|--------------------|----------------0--|


  E  E  E  E  E  E     E  E  E  E  E  E     Q    E  E  E  E   
--------------2-----|--------------------|-------------------|
-----------------2--|--------------0-----|-------1-----1-----|
-----------2--------|-----------1--------|----------2-----2--|
--------4-----------|--------2-----------|--1----------------|
-----4--------------|-----2-----------2--|-------------------|
--2-----------------|--0-----------------|-------------------|


  E  E  E  E  Q       E  E  Q    E  E     E  E  E  E  Q     
-------------------|-------------------|-------------------|
--------1-----1----|-------------2-----|--------------1----|
-----2-----2-------|--------1-------1--|-----------2-------|
--1----------------|-----1-------------|--------3----------|
-------------------|-------------------|-----3-------------|
-------------------|--4----------------|--1----------------|


  E  E  E  E  E  E     Q    E  E  E  E     E  E  E  E  E  E   
--------------0-----|-------------0-----|--------------0-----|
--------3--------3--|-------3--------3--|--------3--------3--|
-----2-----2--------|--3-------3--------|-----2-----2--------|
--0-----------------|-------------------|--0-----------------|
--------------------|-------------------|--------------------|
--------------------|-------------------|--------------------|


  Q    E  E  E  E     E  E  E  E  E  E     E  E  E  E  E  E   
-------------0-----|--------------------|--------------2-----|
-------3--------3--|--------------2-----|--------2--------2--|
--3-------3--------|-----------2-----2--|-----2-----2--------|
--0----------------|--------4-----------|--3-----------------|
-------------------|-----4--------------|--------------------|
-------------------|--2-----------------|--------------------|


  E  E  E  E  E  E     H.              E  E  E  E  E  E     E  E  E  E  E  E   
--------------------|--2------------|--------------2-----|--------0-----------|
--------------2-----|--2------------|--------3--------3--|--0--------------3--|
-----------2-----2--|--2------------|-----2-----2--------|-----2--------2-----|
--------4-----------|---------------|--0-----------------|--0--------0--------|
-----4--------------|---------------|-----------------0--|--------------------|
--2-----------------|--2------------|--------------------|--------------------|


  ^                                                           
  E  E  E  E  E  E     E  E  E  E  Q       E  E  E  E  E  E   
--------------0-----|--------0----------|--------------0-----|
--3-----3--------3--|--0-----0-----3----|-----------0-----0--|
--2--2-----2--------|-----2--------2----|--1-----1-----------|
--0-----------------|--0--------0-------|-----2--------------|
--------------------|-------------------|--0-----------------|
--------------------|-------------------|-----------------0--|


  E  E  E  E  E  E     E  E  E  E  E  E     E  E  E  E  E  E   
--------------0-----|--------------0-----|--------0-----------|
--------2--0--------|--------3--------3--|--0-----------3-----|
-----2--------------|-----2-----2--------|-----2-----------2--|
--------------------|--0-----------------|--0--------0--------|
--0-----------0-----|-----------------0--|--------------------|
-----------0-----0--|--------------------|--------------------|


  E  E  E  E  E  E     E  E  E  E  E  E     E  E  E  E  E  E   
--------------0-----|--------0-----------|--------------0-----|
--------3--------3--|--------------3-----|-----------2-----0--|
-----2-----2--------|-----2--------2--2--|--1-----1-----------|
--0-----------------|--0--------0--------|-----2--------------|
--------------------|--------------------|--0-----------------|
--------------------|--------------------|-----------------0--|


  E  E  E  E  E  E     E  E  E  E  E  E     E  E  E  E  Q     
--------------------|-----------------0--|-------------------|
-----------2--0--2--|-----------0--0-----|-----------0--0----|
--------2--2--------|--------0-----------|--------0----------|
-----2--------------|-----0-----------0--|-----0-------------|
--0-----------------|--------------------|-------------------|
--------------------|--3-----------------|--3----------------|


                                                                 ^             
  E  E  E  E  E  E     E  E  E  E  E  E     E  E  E  E  E  E     H.            
--------------------|--------------------|--------------------|---------------|
--------------3-----|--------------3-----|--------------3-----|--3------------|
--------3--------3--|--------3--------3--|--------3--------3--|--2------------|
-----3-----3--------|-----3-----3--------|-----3-----3--------|--3------------|
--1-----------------|--1--------------1--|--1--------------1--|--1------------|
-----------------1--|--------------------|--------------------|---------------|


  ^              
  H.             
--0------------||
--3------------||
--2------------||
--0------------||
---------------||
---------------||
Login or Register to remove this ad.

1 comment on Nephilim (Eric E. Hache Version)

I love this =)

I love this =)