Ads

The Valley Where Wind is Born (Xenogears) Guitar Tab

Submitted: Jul 10, 2012 by zen03y (Last updated: Jul 10, 2012)

5
Average: 5 (4 votes)
Download | Listen
Game: Xenogears
Composer(s): Yasunori Mitsuda
Style: Arrangement, Fingerstyle
Series: Xeno

AutoScroll: Slow | Medium | Fast
Title: The Valley Where Wind is Born
Artist: Yasunori Mitsuda
Album: Xenogears OST
Tabber: xen05z/zen03y
Tempo = 98
Nylon or Steel Guitar

Legend
L - tied note
x - dead note
h - hammer on/pull off
b - bend
s - slide
~ - vibrato
g - ghost note
> - accentuated note
t - trill
M - palm mute
. - staccato
P - popping (bass)
S - slapping (bass)
+ - tapping
W - wide vibrato
< - fade in
w - whammy bar
= - tremolo picking
v - brush up
^ - brush down
V - pick stroke up
n - pick stroke down

                                                          
E |-------------|--0-------------------------------------|
B |--------2----|--------------------------2-------------|
G |-------------|--------------------------2-------------|
D |-------------|--------------2-------------------------|
A |-------------|--0-------------------------------------|
E |-------------|----------------------------------------|

                                         
----------------------------------------|
--------------------------2-------------|
--2-----------------------2-------------|
--4-------------------------------------|
--------------4-------------------------|
--2-------------------------------------|

                                                                              
----------------------------------------|-----------------0----|-------------|
--3-----------------------3-------------|--2-----------0-------|--------2----|
--------------------------2-------------|--2-------------------|--2-----2----|
--0-------------------------------------|--------2-------------|--4----------|
----------------------------------------|--0-------------------|-----4-------|
----------------------------------------|----------------------|--2----------|

                                                                
--5-----------------------4-------------|--0-------------------|
--3-----------------------4-------------|--0-------------------|
--2-------------------------------------|-----------------2----|
--0-----------------------1L-1----------|--------------2-------|
----------------------------------------|--------2-------------|
----------------------------------------|--0-------------------|

  ^                                                                  
-----------------0----||-4--------------2----|--4--------------2----|
--0-----------2-------||-------2-------------|--------2-------------|
--1--------2----------||o------2-------------|--------2-------------|
--2-------------------||o---2----------------|-----4----------------|
----------------------||-0-------------------|----------------------|
--0-------------------||---------------------|--2-------------------|

                                                                     
--0-------------------|--0--------------0---||--0-------------------|
--------3--------3----|--0-----0-----2------||--0-------------------|
-----2--2-------------|--------1-----------o||--------------1--2----|
--0-------------------|-----2--------------o||--------2-------------|
----------------------|---------------------||----------------------|
----------------------|--0------------------||--0-------------------|

                                                                     
----------------------|--------------2-------|--0-------------------|
-----------------0----|--2-----2-------------|--------3-----2--3----|
--2-----------2-------|--1-----1-----1-------|-----2----------------|
-----------4----------|-----2-----2-----2----|--0-------------------|
--------4-------------|----------------------|----------------------|
--2-------------------|--0-------------------|----------------------|

                                                            
--------0-------------|----------------------|-------------|
--2-------------------|--------------0--2----|--0-----0----|
--2-----------1-------|--2--------2----------|--0-----0----|
-----2----------------|--------4-------------|-----0-------|
--0-------------------|-----4----------------|-------------|
----------------------|--2-------------------|--3----------|

                         ^                                  
----------------------|-------------|----------------------|
----------------------|--0----------|----------------------|
--2--------------2----|--1-----1----|--2--------2-----2----|
--2-----------2-------|--2----------|-----4--------4-------|
--2--------2----------|-------------|--------4-------------|
--0-------------------|--0----------|--2-------------------|

                                                                     
--------------2-------|--0-----2-----4-------|--5-----0-------------|
--2-----2-------------|--------3-----2--3----|--2-------------------|
--1-----1-----1-------|-----2----------------|--2-----------1-------|
-----2-----------2----|--0-------------------|-----2----------------|
----------------------|----------------------|--0-------------------|
--0-------------------|----------------------|----------------------|

                                                                       ^     
----------------------|----------------------|----------------------|--0----|
--------------0--2----|--0--------------0----|----------------------|--0----|
--2-------------------|--0-----------2-------|--2-----------2-------|--1----|
--4-------------------|--------0-------------|--2-----2-----2-------|--2----|
----------------------|----------------------|--2--2-----2----------|--2----|
--2-------------------|--3-------------------|--0-------------------|--0----|

                                                                     
--0--------0----------|----------------------|--0--------0----------|
--0-----------3--2----|--0-----0--2--3-------|--0-----------3--2----|
-----------0----------|--0-----0--2--2-------|-----------0----------|
--------4-------------|-----0----------------|--------4-------------|
-----4----------------|----------------------|-----4----------------|
--2-------------------|--3-------------------|--2-------------------|

                                                                     
--------2-----0-------|--0--------0----------|----------------------|
--3-----3-------------|--0-----------3--2----|--0-----0--2--3-------|
--0-----------0-------|-----------0----------|--0-----0--2--4-------|
-----0----------------|--------4-------------|-----0----------------|
----------------------|-----4----------------|----------------------|
--3-------------------|--2-------------------|--3-------------------|

                ^
--5-----5----|--7----|--5-------------------|----||
--3--3-------|--5----|--------------12-14---|----||
--2----------|--4----|-----------14---------|----||
--0----------|--6----|--------14------------|----||
-------------|-------|--5-------------------|----||
-------------|--0----|----------------------|----||
Login or Register to remove this ad.

2 comments on The Valley Where Wind is Born

wow, I love it----- I Love

wow, I love it----- I Love it.

song

5

5 stars