Emotions (Xenogears) Guitar Tab

Submitted: Mar 14, 2010 by Kabukibear (Last updated: Apr 04, 2011)

4.789475
Average: 4.8 (19 votes)
Download | Listen
Game: Xenogears
Composer(s): Yasunori Mitsuda
Style: Fingerstyle, Natural harmonics, Percussion
Series: Xeno

AutoScroll: Slow | Medium | Fast
Emotions                                     
~Xenogears~
Composed by: Yasunori Mitsuda
Arranged by: Justin Lincoln

Notes marked with an X should be tapped with the side of the
thumb in a percussive manner.



     E  E  E  E  E  E  E  E       E  E  E  E  E  S S E  E   
E||--------------------------||----------------------------|
B||--3--------------------3--||---------------3----1----0--|
G||--------0--2--L-----0-----||*--------0--2---------0-----|
D||-----0-----------0--------||*-----0-----------0---------|
A||--------------------------||----------------------------|
E||--3-----------------------||---3------------------------|


  E  E  E  E  E  E  E  E     E  E  E  E  E  E  E  S S  
-----------1--L-----0-----|---------------------------|
-----------------------1--|--3--------------------0-1-|
--2--------0--L-----------|--------0--2--L-----0------|
--------3-----------3-----|-----0-----------0---------|
-----3-----------3--------|---------------------------|
--1-----------------------|--3------------------------|


  E  E  E  E  E  E  E  E     E  E  E  E  E  E  E  E   
--------------3-----------|--3-----1-----------------|
--3-----------------------|-----------3-----1-----3--|
-----------0-----------0--|-----3--------------------|
--------4--------2--L-----|--1-----------1-----------|
-----2--------------------|--------------------1-----|
--0-----------------------|--------------------------|


  E  E   E  E  E  E   E  E     H        E  E  E  E   
----------------------------|-----------------------|
------------3--L------------|-----------------------|
-----0h--2--------2p--0-----|-----------------------|
-------------------------0--|--4-----------2--0-----|
--0-------------------------|--5-----------------0--|
----------------------------|-----------------------|


  E  E  E  E  E  S S E  E     E  E  E  E  E  S S E  E   
-----------------0---------|-------------------3-L--1--|
-----------3--L----3-1--3--|--------------3------------|
--------0--2--L------0-----|--------0--2---------------|
-----0-----------0---------|-----0-----------0---------|
---------------------------|---------------------------|
--3------------------------|--3------------------------|


  E  E  E  E  E  E  E  E     E  E  E  E  E  E  E  E   
-----0--------------------|--------------------------|
-----------3--L--1-----3--|--------1-----0-----------|
-----------0--L-----------|--------------------2-----|
--------------------------|-----0-----0-----0-----0--|
--------3-----------3-----|--------------------------|
--1-----------------------|--3-----------3-----2-----|


  E  E  E  E  E  S S E  E     E  E  E  E  E  E  E  E   
------------------------3--|-----1--------------------|
-----------0--0----3-L-----|-----------3--L--1-----3--|
--0--------0--0------------|--------0--3--L-----------|
--------4------------------|--1-----------------------|
-----2-----------2---------|--------------------1-----|
--0------------------------|--------------------------|


  E  E  E  E  E  E  E  E     E  E  E  E  E  E  E  S S   
--------------------------|----------------------------|
--------------------0--1--|--3--------0----------------|
--------0--2--L-----------|--------------2--------0----|
-----0-----------0--------|-----0--4-----------0----2h-|
--0-----------------------|--0--------------0----------|
--------------------------|----------------------------|


  E  E  E  E  E  S S E  E     E  E  E  E  E  S S E  E   
-----------------0---------|-------------------3-L--5--|
-----------3--L----3-1--3--|--------------3------------|
--------0--2--L------0-----|--------0--2---------------|
--0--------------0---------|-----0-----------0---------|
---------------------------|---------------------------|
-----3---------------------|--3------------------------|


  E  E  E  E  E  E  E  E     E  E  E  E  E  E  E  E   
-----3-----------3--------|-----------3--2--------3--|
-----------6--L--------3--|-----------------3--1-----|
--------5--0--L-----------|--------0-----------------|
--3-----------------------|-----0--------------------|
--------------------3-----|-----------0-----------2--|
--------------------------|--3-----------------------|


  E  E  E  E  E  S S E  E     E  S S E  E  E  E  E  E   
-------------------3----3--|-----5-3-2--3-----5-----5--|
--3--------3--3------------|---------3-----------------|
--0-----0------------------|---------------0-----------|
-----2---------------------|---------------------------|
---------------------2-----|--3------------------3-----|
--0--------------0---------|---------------------------|


  E  E  E  E  E  E  E  E     E  E  E  E  E  S S E  E   
--------------------------|-------------------5----8--|
-----------3--L-----------|-----------3--3------------|
-----0--2--------2--0-----|---------------------------|
--0--------------------0--|-----4-----------4---------|
--------------------------|--5-----x-----5------x-----|
--------------------------|---------------------------|


  E  E  E  E  E  E  E  E     E  E  E  E  E  E  E  E   
-----7-----------7-----5--|--------------------------|
-----0-----8-----0--------|-----------3-----------3--|
-----0-----------0--------|-----0-----2-----2--------|
--------------------------|--0-----x-----0-----x-----|
--------------------------|--------------------------|
--8-----x-----8-----x-----|--------------------------|


                   NH      NH                             
  E.  S E  E  E    E  E    E     E.  S E  E  E  E  E  E   
--5---3----7------------------|--------------------------|
--0--------------<>7----------|--------------------------|
--0----------------------<>7--|--2---0----4-----5-----7--|
------------------------------|--0--------0-----0-----0--|
------------------------------|--------------------------|
--0-----x-----0-------x-------|--0-----x-----0-----x-----|


  E.  S E  E  E  E  E  E     E  E  E  E  E  E  E  E   
--8---7----------7-----5--|--------------------------|
--0---0----8-----0--------|-----0-----3-----1-----0--|
--0---0----0-----0--------|-----0-----2-----2-----0--|
--------------------------|--0-----x-----0-----x-----|
--------------------------|--------------------------|
--8-----x-----8-----x-----|--------------------------|


   E  E   E  E  E  E  E  E     E  E  E  E  E  E  E  E   
--10--8s--7-----------------|--------------------------|
---0---------8-----7--------|--------------------------|
---0---------------------7--|-----7-----5-----4-----0--|
----------------------------|-----0-----0-----0-----0--|
----------------------------|--------------------------|
---0------x-----0-----x-----|--0-----x-----0-----x-----|


  E.  S E  E  E  E  E  E     E  E   E  E  E  E  E  E   
--8---7----------7-----5--|---------------------------|
--0---0----8-----0--------|------------3-----------3--|
--0---0----0-----0--------|-----0h--2--2-----2--------|
--------------------------|--0------x-----0-----x-----|
--------------------------|---------------------------|
--8-----x-----8-----x-----|---------------------------|


  E.  S E  E  E  E  E  E     E  E  E  E  E  E  E  E   
--5---7----3--------------|--------------------------|
--0--------3-----0-----3--|-----3-----1-----3--------|
--0--------0-----0-----4--|-----4-----2-----4-----0--|
-----------------0-----0--|-----0-----0-----0-----0--|
--------------------------|--------------------------|
--3-----x-----3-----x-----|--0-----x-----0-----x-----|


  E.  S E   E  E  E  E  E     E  E  E  E  E  E  E  E   
--7---7-----------7--------|--------------------------|
--8---8----10-----8-----8--|--------------------------|
--0---0-----0-----0-----9--|-----7-----7-----------0--|
---------------------------|-----------------0--------|
---------------------------|--------------------------|
--8-----x------8-----x-----|--8-----x-----8-----x-----|


  Q    E  E  E  E  E  E     E  E  E  S S E  E  E  E   
--7-------------------0--|-----------2-0-------------|
--5-------3--------------|---------------3--1-----3--|
--5----------------------|-----------2---------------|
----------------2--------|-----4---------------------|
--0----x-----0-----x-----|--5-----x------------x-----|
-------------------------|---------------------------|


  E  E  E  E  E  E  E  E       E  E  E  E  E  E  E  E   
---------------------------||--------------------------|
-----------------------3---||-----------------------3--|
--------0--2--L-----0-----*||--------0--2--L-----0-----|
-----0-----------0--------*||-----0-----------0--------|
---------------------------||--------------------------|
--3------------------------||--3-----------------------|


                             ^                  
  E  E  E  E  E  E  E  E     W                  
--------------------------|--2----------------||
-----------------------3--|--3----------------||
--------0--2--L-----0-----|--4----------------||
-----0-----------0--------|-------------------||
--------------------------|-------------------||
--3-----------------------|--3----------------||




Duration Legend
---------------
W - whole
H - half
Q - quarter
E - 8th
S - 16th
T - 32nd
X - 64th
. - note dotted
|-n-|  - n-tuplets


Tablature Legend
----------------
L - tied note
x - tap
s - legato slide
^ - brush up
Login or Register to remove this ad.

12 comments on Emotions

Recording!! ^-^

5

Recording!! ^-^

Nice TAb

5

Its wierd how whenever I play your songs i can always tell u made them without look at the information on top of the song lol. Also great tab

Great tab Kabuki. I agree

5

Great tab Kabuki.
I agree with Auri... There needs to be a recording!

Awesome :3

Awesome :3

Sir Kabukibear's tablatures

Sir Kabukibear's tablatures always make me feel bad about my guitar skills. He always does some creative stuff with his arrangements. It pisses me off! ;-; In my heart, it is I who has done all these things. In my heart, I'm also an english gentleman.
About that one tab, it turned out to one of my favorites arrangements of yours, even if I didn't know the actual song (I'm searching for it right know). It sounds just Great. It isn't as complex as most of your works, but it is totally solid. I can't wait to try it out!
I am a huge fan of your arrangements, even if I'm able to play only some of them. I really can't understand how people as brilliant as you aren't earning money with music instead of carrying the "amateur" title.
Please, keep up with the good work! Thank you very much for sharing it with us!

I'm also looking forward to Lady Auriplane's recording!

Me?? No!! I want Kabuki to

Me?? No!! I want Kabuki to play it XD

Heh, look! somebody finally

Heh, look! somebody finally called you Lady instead of Sir

now we just need to figure

now we just need to figure out what to call you

Kabuki, you should do more

5

Kabuki, you should do more arrangements with tapping. This is so much fun to play, and so beautiful :D

ROAR. why did i not see this

ROAR. why did i not see this earlier. Awesome tab as always kabuki love the guitar hitting fun.

Particularly awesome tab

5

Particularly awesome tab o_o
And thanks again for the recording :)

I nominate this for the tab

I nominate this for the tab of the year award.

fun as hell to play :>