Ads

Bonds of Sea and Fire (Xenogears) Guitar Tab

Submitted: Aug 02, 2012 by Omnicide

5
Average: 5 (12 votes)
Download | Listen
Game: Xenogears
Composer(s): Yasunori Mitsuda
Style: Arrangement, Fingerstyle, Natural harmonics
Series: Xeno

AutoScroll: Slow | Medium | Fast
Bonds Of Sea And Fire
Xenogears
Composed by Yasunori Mitsuda
Arranged by William Geesdorf


Drop D Tuning


        NH    NH   NH   NH    NH   NH       NH    NH   NH   NH    NH   NH  
        E     E    E    E     E    E        E     E    E    E     E    E   
E||--<>12-----------------------------|--<>12-----------------------------|
B||--------<>12------------<>12-------|--------<>12------------<>12-------|
G||--------------<>7-------------<>7--|--------------<>7-------------<>7--|
D||-------------------<>7-------------|-------------------<>7-------------|
A||-----0-----------------------------|-----0-----------------------------|
D||-----------------------------------|-----------------------------------|


     NH    NH   NH   NH    NH   NH       NH    NH   NH   NH    NH   NH                  
     E     E    E    E     E    E        E     E    E    E     E    E     H.            
--<>12-----------------------------|--<>12-----------------------------|--L------------|
--------<>12------------<>12-------|--------<>12------------<>12-------|--L------------|
--------------<>7-------------<>7--|--------------<>7-------------<>7--|--L------------|
-------------------<>7-------------|-------------------<>7-------------|--L------------|
-----0-----------------------------|-----0-----------------------------|--L------------|
-----------------------------------|-----------------------------------|---------------|


    E  E  E  E  E  E     E  E  E  E  E  E     E  E  E  E  E  E   
|---0-----0-----0-----|--0-----0-----0--5--|--3-----3--2--3--0--|
|------------3--------|-----------3--------|--------------------|
|*-----2-----------2--|-----2--------------|-----2--------------|
|*--------------------|--------------------|--------------------|
|---0--------0--------|--0--------0--------|--0--------0--------|
|---------------------|--------------------|--------------------|


  E  T  T  S E  E  E  E     E  E  E  E  E  E     E  E  E  E  E  E     E  E  E  E  E  E   
--2--0h-2p-0----0--------|--0-----0-----0-----|--0-----0-----0--5--|--3-----3--2--3--5--|
-------------3-----------|-----------3--------|-----------3--------|--------------------|
-------------------2--0--|-----2-----------2--|-----2--------------|-----2--------------|
-------------------------|--------------------|--------------------|--------------------|
--0-------------0--------|--0--------0--------|--0--------0--------|--0--------0--------|
-------------------------|--------------------|--------------------|--------------------|


  E  E  E  Q.         E  E  E  E  E  E     E  E  E  E  E  E     E  E  E  E  E  E   
--5--7--3--5~------|--0-----0-----0-----|--0-----0-----0--5--|--3-----3--2--3--0--|
-------------------|-----------3--------|-----------3--------|-----1--------------|
-------------------|-----2-----------2--|-----4--------------|--------------------|
-------------------|--------------------|--------------------|--------------------|
--0--------0-------|--0--------0--------|--0--------0--------|--0--------0--------|
-------------------|--------------------|--------------------|--------------------|


  E  T  T  S E  E  E  E     E  E  E  E  E  E     E  E  E  E  E  E     E  E  E  E  E  E   
--2--0h-2p-0----0--------|--0-----0-----0-----|--0-----0-----0--5--|-----------------5--|
--0----------3-----------|-----------3--------|-----------3--------|--8-----8--7--8-----|
-------------------2--0--|-----2-----------2--|-----4--------------|-----5--------------|
-------------------------|--------------------|--------------------|--------------------|
--0-------------0--------|--0--------0--------|--0--------0--------|--0--------0--------|
-------------------------|--------------------|--------------------|--------------------|


   E  E  E  Q.        E  E  E  E  T  T  S E     E  E  E  E  T  T  S  E   
------7-----5------|-------------------------|--------------------------|
--10-----8---------|--1--------1--0h-1p-0----|--0--------0--------------|
---7--------6------|--------2-------------2--|--------0-----2h-4p-2p-0--|
-------------------|-----2-------------------|-----0--------------------|
---0--------0------|--0----------------------|--------------------------|
-------------------|-------------------------|--5-----------------------|


  E  E  E  E  E  E     E  E  E  E  E  E     E  E  E  E  T  T  S E   
--------------------|--------------------|-------------------------|
--------------------|--------------------|--1--------1--0h-1p-0----|
--2--------2--0-----|--0--------0--2--4--|--------2-------------2--|
--------0--------4--|-----2--4-----------|-----2-------------------|
-----0--------------|--------------------|--0----------------------|
--0-----------------|--0-----------------|-------------------------|


  E  E  E  E  T  T  S  E     E  E  E  E  E  E     E  E  E  E  E  E   
--------------------------|--------------------|--------------------|
--0--------0--------------|--------------------|--------------------|
--------0-----2h-4p-2p-0--|--2--------------2--|--0-----------------|
-----0--------------------|--------0--2--4-----|-----4--2--4--0--2--|
--------------------------|-----0--------------|--------------------|
--5-----------------------|--0-----------------|--0-----------0-----|


  E  E  E  E  T  T  S E     E  E  E  E  T  T  S  E     E  E  E  E  E  E   
-------------------------|--------------------------|--------------------|
--1--------1--0h-1p-0----|--0--------0--------------|--------------------|
--------2-------------2--|--------0-----2h-4p-2p-0--|--2--------2--0-----|
-----2-------------------|-----0--------------------|--------0--------4--|
--0--------0-------------|--------------------------|-----0--------------|
-------------------------|--5--------5--------------|--0--------0--------|


  E  E  E  E  E  E     E  E  E  E  T  T  S E     E  E  E  E  T  T  S  E   
--------------------|-------------------------|--------------------------|
--------------------|--1--------1--0h-1p-0----|--0--------0--------------|
--0--------0--2--4--|--------2-------------2--|--------0-----2h-4p-2p-0--|
-----2--4-----------|-----2-------------------|-----0--------------------|
--------------------|--0--------0-------------|--------------------------|
--0--------0--------|-------------------------|--5--------5--------------|

                                                                1st Ending
                                                                  ^             
  E  E  E  E  E  E     E  E  E  E  E   E     E  E  E  E  E  E     H.            
--------------------|---------------------|--------------------|--0------------|
--------------------|---------------------|--0--------------0--|--0------------|
--2--------------2--|--0-----------0h--2--|--------------2-----|--1------------|
--------0--2--4-----|-----4--2--4--0h--2--|-----------2--------|--2------------|
-----0--------------|---------------------|-----0--2-----------|--2------------|
--0--------0--------|--0------------------|--2-----------2-----|--2------------|


     NH    NH   NH   NH    NH   NH       NH    NH   NH   NH    NH   NH  
     E     E    E    E     E    E        E     E    E    E     E    E   
--<>12-----------------------------|--<>12-----------------------------|
--------<>12------------<>12-------|--------<>12------------<>12-------|
--------------<>7-------------<>7--|--------------<>7-------------<>7--|
-------------------<>7-------------|-------------------<>7-------------|
-----0---------------0-------------|-----0---------------0-------------|
-----------------------------------|-----------------------------------|

                                                                          2nd Ending
     NH    NH   NH   NH    NH   NH       NH    NH   NH   NH    NH   NH      ^             
     E     E    E    E     E    E        E     E    E    E     E    E       H.            
--<>12-----------------------------|--<>12------------------------------||--0------------|
--------<>12------------<>12-------|--------<>12------------<>12--------||--0------------|
--------------<>7-------------<>7--|--------------<>7-------------<>7--*||--1------------|
-------------------<>7-------------|-------------------<>7-------------*||--2------------|
-----0---------------0-------------|-----0---------------0--------------||--2------------|
-----------------------------------|------------------------------------||--2------------|


                     NH    NH   NH   NH    NH   NH       NH    NH   NH   NH    NH   NH  
  H.                 E     E    E    E     E    E        E     E    E    E     E    E   
--L------------|--<>12-----------------------------|--<>12-----------------------------|
--L------------|--------<>12------------<>12-------|--------<>12------------<>12-------|
--L------------|--------------<>7-------------<>7--|--------------<>7-------------<>7--|
--L------------|-------------------<>7-------------|-------------------<>7-------------|
--L------------|-----0-----------------------------|-----0-----------------------------|
--L------------|-----------------------------------|-----------------------------------|


     NH    NH   NH   NH    NH   NH       NH    NH   NH   NH    NH   NH      NH            
     E     E    E    E     E    E        E     E    E    E     E    E       H.            
--<>12-----------------------------|--<>12-----------------------------|-----------------|
--------<>12------------<>12-------|--------<>12------------<>12-------|--<>7------------|
--------------<>7-------------<>7--|--------------<>7-------------<>7--|-----------------|
-------------------<>7-------------|-------------------<>7-------------|----0------------|
-----0-----------------------------|-----0---------------------0-------|-----------------|
-----------------------------------|-----------------------------------|-----------------|


  H.             
---------------||
--L------------||
---------------||
--L------------||
---------------||
---------------||




Duration Legend
---------------
W - whole
H - half
Q - quarter
E - 8th
S - 16th
T - 32nd
X - 64th
. - note dotted
|-n-|  - n-tuplets


Tablature Legend
----------------
L - tied note
NH - natural harmonic
h - hammer on
p - pull off
~ - vibrato
^ - brush up
Login or Register to remove this ad.

7 comments on Bonds of Sea and Fire

Awesome

5

Thank you to share another superb tab :)

man listening to the midi

man listening to the midi gave me so much nostalgia I had chills. Will mess around with the tab later and let you know what I think :P.

nice arrangement! you do good

5

nice arrangement! you do good work omnicide

now that I've actually had a

5

now that I've actually had a chance to play the tab this is even more brilliant. Great job. Very accessible, playable, relaxing tab.

Thanks, i'm trying to make my

Thanks, i'm trying to make my tabs more accessible and playable now.
Much of my previous tabs were too much difficult to play without mistakes.

Really really nice, very

5

Really really nice, very playable. I love it.

Great!

5

A very good, practical arrangement. I give you props.