Battle Theme (Lost Odyssey) Guitar Tab

Submitted: May 07, 2008 by fordtuff (Last updated: May 07, 2008)

3.333335
Average: 3.3 (3 votes)
Download | Listen
Game: Lost Odyssey
Composer(s): Nobuo Uematsu
Style: Transcription

Click here for a video example.

AutoScroll: Slow | Medium | Fast
Title:		The Gun Barrel of Battle (Battle Theme)
Game: 		Lost Odyssey
Composer:	Nobuo Uematsu
Year:		2007
System:		Xbox 360
Tabber:		Fordtuff
 	



(/) Slide Up  (\) Slide Down  (h) Hammer On  (p) Pull Off  
(b) Bend (r) Release (v) Vibrato


Line 1
E|--------------------------------------------
B|---------------------------------------11~~-	You can play those as Single notes
G|---------------------------9---7---6--------  not as a power chord if you want.
D|---2---4---7---5---8---5---9---7---6--------
A|---2---4---7---5---8---5---7---5---4--------
E|---0---2---5---3---6---7--------------------

Line 2
E|--------------------------------------------2-------2-------
B|---7---5---7---8---10---8---7---5---7---3-------2-------0---
G|------------------------------------------------------------
D|------------------------------------------------------------
A|------------------------------------------------------------
E|------------------------------------------------------------

Line 3
E|----------------------------------------------------------------
B|---7---5---7---8---10---8---7---5---7---3---15---14---12---10---
G|----------------------------------------------------------------
D|----------------------------------------------------------------
A|----------------------------------------------------------------
E|----------------------------------------------------------------

Repeat line 2

Line 4
E|-----------------------------------------------
B|-----------------------------------------------
G|----------------------------------------------- X2
D|-----------------2------------------2----------
A|-2-2-2-2-5-2-2-2---2--2-2-2-2-5-2-2---2---0h2-2
E|-----------------------------------------------



Line 5
E|--------------------------------------------------
B|--------------------------------------------------
G|--------------------------------------------------  X2
D|---------3-------5-------------3-------5----------
A|-5-5-5-5---5-5-5---5---5-5-5-5---5-5-5---5---3h5-5
E|--------------------------------------------------

Repeat Line 1

I cant figure out the Intro before Line 1, or the little fills 
inbetween Line 1 and the repeat of Line 2, and the Fill between 
Line 5 and the repeat of line 1.

By all means if anyone can improve on this tab go for it, 
I just did this as a base to anyone who wants to learn 
the lead of the song on guitar.

Play this along with the song for the timing, cuz i dont 
know how to use the timing on the tab maker, but make sure 
you use an electric guitar it sounds great.

Thanks for this great site and thanks for everything 
from everyone who posts, and submits.

Ty all

Fordtuff.
Login or Register to remove this ad.