Ads

Rumor (The Witches House) Guitar Tab

Submitted: Dec 21, 2022 by scarecrowlol (Last updated: Dec 21, 2022)

5
Average: 5 (1 vote)
Download | Listen
Game: The Witches House
Composer(s): Presence Of Music
Style: Arrangement, Fingerstyle

Click here for a video example.

AutoScroll: Slow | Medium | Fast
Title: Rumor
SubTitle: The Witch's House
Tabber: Mitch Jackson
Tempo = 80
T/S = 3/4


       ♪♫•*¨*•.¸¸ CAPO 4 ¸¸.•*¨*•♫♪ 

       
Left hand fingering is included in GP file as a guide

---------
LEGEND 
---------
h = Hammer-On
p = Pull-off
L = Hold Previous Note
^ = Upward Arpeggio
|-3-| = Triplet
mf = mezzo-forte (Moderately Loud)


   mf
      E  E  E  E  E  E       E  E  E  E  E  E       E  E  E  E  E  E       E  E  E  E  E  E
E ||----------------------|----------------------|----------------------|----------------------|
B ||----------------------|----------------------|----------------------|----------------------|
G ||o---------------------|----------------------|----------------------|----------------------|
D ||o-------1-----1-------|--------1-----1-------|--------1-----1-------|--------2-----2-------|
A ||-----2-----2-----2----|-----2-----2-----2----|-----2-----2-----2----|-----2-----2-----2----|
E ||--0-------------------|--0-------------------|--0-------------------|--0-------------------|


     E  E  E  E  E  E       E  E  E  E  E  E       E  E  E  E  E  E       E  E  E  E  E  E
  |----------------------|----------------------|----------------------|----------------------|
  |----------------------|----------------------|----------------------|----------------------|
  |----------------------|--------------0-------|----------------------|--------0-------------|
  |--------2-----2-------|--------4-------------|--------2-----4-------|--------------2-------|
  |-----3-----3-----3----|-----3-----3-----3----|-----3-----3-----3----|-----3-----3-----3----|
  |--0-------------------|--0-------------------|--0-------------------|--0-------------------|


     E  E  E  E  E  E       E  E  E  E  E  E       E  E  E  E  E  E       E  E  E  E  E  E
  |--3-------------------|-----------3--2--0----|----------------------|--0-----2-----3-------|
  |--0-------------------|-----------0----------|--4-------------------|--------------0-------|
  |----------------------|--------------2--0----|--2-------------------|--0-----2-------------|
  |--------1-----1-------|--------1-----1-------|--------1-----1-------|--------2-----2-------|
  |-----2-----2-----2----|-----2-----2-----2----|-----2-----2-----2----|-----2-----2-----2----|
  |--0-------------------|--0-------------------|--0-------------------|--0-------------------|
                                                                     
     ^                                                                    ^
     E  E  E  E  E  E       E  E  E  E  E  E       E  E  E  E  E  E       E  E  E  E  E  E
  |--3-------------------|----------------------|--3-------------------|--0-------------------|
  |--1-------------------|----------------------|--1-------------------|--1-------------------|
  |----------------------|--------------0--2----|--0-------------------|----------------------|
  |--------2-----2-------|--------2--4--2-------|--------2-----2-------|--------2-----2-------|
  |-----3-----3-----3----|-----3-----3-----3----|-----3-----3-----3----|-----3-----3-----3----|
  |--0-------------------|--0-------------------|--0-------------------|--0-------------------|

     ^
     E  E  E  E  E  E       E  E  E  E  E  E       E  E  E  E  E  E       E  E  E  E  E  E
  |--3-------------------|--------------2--0----|--2--3--5-------------|--0-----2-----3-------|
  |--0-------------------|--------------0-------|--4-----------1-------|--0--------------3----|
  |--0-------------------|----------------------|--0-------------------|--0-------------------|
  |--------1-----1-------|--------1-----1-------|--------1-----1-------|--------2-----2-------|
  |-----2-----2-----2----|-----2-----2-----2----|-----2-----2-----2----|-----2-----2-----2----|
  |--0-------------------|--0-------------------|--0-------------------|--0-------------------|

                                                   ^
     E  E  E  E  E  E       E  E  E  E  E  E       E  E  E  E  E  E       E  E  E  E  E  E
  |----------------------|----------------------|--0-------------------|--------0-------------|
  |--3--1--1-------------|--3-------------------|--1-------------------|--3-------------------|
  |----------------------|--0-----------0--2----|--0-------------------|--0-------------------|
  |--------2-----2-------|--------2--4--2-------|--------2-----2-------|--------2-----2-------|
  |-----3-----3-----3----|-----3-----3-----3----|-----3-----3-----3----|-----3-----3-----3----|
  |--0-------------------|--0-------------------|--0-------------------|--0-------------------|

                                                                                |-3-|
     E  E  E  E  E  E       E  E  E  E  E  E       E  E  E  E  E  E       E  E  S S S E  E  E
  |----------------------|--------0-----2-------|--0-------------------|--3-----2h3p2----0-------|
  |--4-------------------|----------------------|--0-----3-----1-------|--------3--------1-------|
  |--------2-----2-------|--------2-----2-------|-----0-----0-----0----|-----0--------0-----0----|
  |-----1-----1-----1----|-----1-----1-----1----|----------------------|-------------------------|
  |--2-------------------|--2-------------------|--3-------------------|--3----------------------|
  |----------------------|----------------------|----------------------|-------------------------|

                                                     ^                      ^
     E  E  E  E  E  E       E  E  E  E  S S S S      E  E  E  E  E  E       H.      
  |----------------------|--------0---------------|--0-----3-------------|----------------------||
  |--4-----0-------------|----------------0-1-3---|--3-----------1-------|--0-------------------||
  |--------2-----2-------|--------2-----2---------|--0--------0----------|--0------------------o||
  |-----1-----1-----1----|-----1-----1------------|-----2-----------2----|--2------------------o||
  |--2-------------------|--2---------------------|--3-------------------|--3-------------------||
  |----------------------|------------------------|----------------------|--0-------------------||

      
     H.             
  |----------------------|
  |--L-------------------|
  |--L-------------------|
  |--L-------------------|
  |--L-------------------|
  |--L-------------------|


Note Durations:
---------------
H.= Dotted Half Note - 3 Beats (Minim + Crotchet)
E = Eighth Note / Quaver - 1/2 Beat
S = Sixteenth Note / Semiquaver - 1/4 Beat
Login or Register to remove this ad.