Sword Of Destiny (The Witcher 3: Wild Hunt) Guitar Tab

Submitted: Oct 25, 2015 by IkuinenOnni

5
Average: 5 (2 votes)
Download | Listen
Game: The Witcher 3: Wild Hunt
Composer(s): Marcin PrzybyƂowicz, Mikolai Stroinski, Percival
Style: Arrangement, Fingerstyle

AutoScroll: Slow | Medium | Fast
                               Sword Of Destiny                                 


Steel Guitar
     Q.        Q.        Q.        Q.        Q.        Q.        Q.      
E||---------|--6------|--L------|---------|---------|---------|---------|
B||--3------|--8------|--L------|---------|---------|---------|---------|
G||--2------|---------|---------|--0------|--L------|---------|---------|
D||--0------|--8------|--L------|---------|---------|---------|---------|
A||---------|---------|---------|---------|---------|---------|---------|
D||---------|---------|---------|--5------|--L------|--5------|--L------|


  E.  E.     Q.        Q.        Q.        Q.        Q.        Q.      
--5---3---|--5------|--1------|--3------|---------|---------|---------|
--6---5---|--6------|--3------|--3------|--3------|--L------|---------|
------0---|---------|---------|--0------|--2------|--L------|---------|
--7-------|--7------|--3------|---------|--0------|--L------|---------|
----------|---------|---------|---------|---------|---------|---------|
----------|---------|---------|---------|---------|---------|--0------|


  Q.          E  S S S S    E  E  E        E  S S S S    E  E  E     
---------||--------------|------------||--------------|------------||
---------||--------------|------------||--------------|------------||
---------||*-------------|-----------*||*-------------|--0--------*||
---------||*-------0---0-|--3--0-----*||*-------0---0-|-----0-----*||
---------||--------------|------------||--------------|------------||
--L------||---0--0---0---|--------0---||---3--3---3---|--------3---||


   E  S S S S    E  E  E       E  S S S S    E  E  E     E  S S S S  
--------------|------------||-------------|-----------|-------------|
--------------|------------||-------------|-----------|-------------|
*-------------|-----------*||-------------|--0--------|-------------|
*-------0---0-|--3--0-----*||-------0---0-|-----0-----|-------0---0-|
---1--1---1---|--------1---||-------------|-----------|-------------|
--------------|------------||--5--5---5---|--------5--|--1--1---1---|


  E  E  E     E  S S E     E.  S E     E  S S E     S S S S S S    S S S S S S  
-----------|--5------5--|-----------|------------|--5-----------|------------3-|
-----------|--3------3--|-----------|------------|--3-1-1-3-3-L-|--3-1-1-1-1---|
-----------|--2---------|-----------|------------|--2---------2-|--2-----------|
--3--0-----|--0----0----|--0---0-0--|--0--0-0-0--|--0-----------|--0-L-L-0-----|
-----------|------------|-----------|------------|--------------|--------------|
--------1--|-----0---0--|--0---0-0--|--0--0-0-0--|--------------|--------------|


  E  S S E     S S S S S S    E  E  E     S S S S S S      E  E  E     E  Q     
--1--L-L-L--|--1-----1-----|-----------|--------0-1-3-||---1--0-----|--0-------|
--3--3-3-3--|--3-----3-----|--3--3--3--|--3-1-3-------||---------3--|--3--3----|
--2---------|--3-2-2-3-2-2-|--0--2--5--|--------------||*-----------|--2--2----|
--0--0-0-0--|--0-L-L-0-----|--0--0--0--|--0-L-0---0-L-||*--0--0-----|--0--0----|
------------|--------------|-----------|--------------||------------|----------|
------------|--------------|-----------|--------------||---0--0-----|----------|


  E  E  E     E  Q       E  E  E     E  Q       E  E  E     E  E  E   
--1--0-----|----------|--1--0-----|--0-------|--1--0-----|-----------|
--------3--|----------|--------3--|--3--3----|--------3--|--------1--|
-----------|--3--2----|-----------|----------|-----------|--2--3-----|
--0--0-----|--0--0----|--3--3-----|--3--3----|--3--3-----|--0--0-----|
-----------|--0--0----|-----------|----------|-----------|-----------|
--0--0-----|--0--0----|--3--3-----|----------|--3--3-----|--3--3-----|


  E  E  E     E  Q       E  E  E     E  Q       E  E  E     E  Q     
--1--0-----|--0-------|--1--0-----|----------|--1--0-----|--0-------|
--------3--|--3--3----|--------3--|--3--3----|--------3--|--3--3----|
-----------|--3--3----|-----------|--3--2----|-----------|--0--0----|
-----------|--0--0----|-----------|--0--0----|--0--0-----|--0--0----|
--1--1-----|----------|--1--1-----|----------|-----------|----------|
-----------|----------|-----------|----------|--5--5-----|----------|


  E  E  E     E  E  E       Q.        Q.        Q.        Q.      
--1--0-----|------------||---------|---------|---------|---------|
--------3--|--3--3--1---||---------|---------|--3------|--L------|
-----------|--2--3-----*||---------|---------|--2------|--L------|
--1--1-----|-----------*||--0------|--L------|--0------|--L------|
-----------|--1--1--1---||---------|---------|---------|---------|
--1--1-----|------------||--0------|--L------|--0------|--L------|


  Q    E  E  Q    Q       E  E  Q    E  E  E  E       Q    E  E  E  E  Q     
-----------------------|-------------------------||-------------------------|
-----------------------|-------------------------||-------------------------|
-----------------------|----------------------0--||*--2-------0-----0--2----|
--L----L--0--0----0----|--0--0--0----0-----4-----||*--0----4-----4-----0----|
-----------------------|--0--0--0----0-----------||--------------------0----|
--L-------0--0----L----|--0--0--0----0--0--------||---0---------------------|


  E  E  E  E  Q    E  E     Q    E  Q    E  Q       E  Q    E  Q    E  E     
-------------------------|-----------------------|-------------------------||
-------------------------|-----------------------|-------------------------||
-----0-----0--2----3--2--|--0--------------------|-------------2-------0--*||
--4-----4-----0----0-----|--0----4--4----1--1----|--0--0-------0----4-----*||
--------------0----0-----|----------0-------0----|----------3--------------||
--0----------------------|--0--------------------|-------------------------||


  E  Q    E  Q    Q       Q    E  E  Q    E  E     E  Q    E  Q    E  E   
-----------------------|------------------------|------------------------|
-----------------------|--3---------------1--3--|---------------------1--|
-------------2---------|--2----2--0--2----------|--0--2----0--2----2-----|
--0--0-------0---------|--0---------------------|--0--L------------------|
----------3------------|------------------------|------------------------|
------------------0----|--0----L--L--L----0--0--|----------0--L----0--L--|


  Q    E  E  Q    E  E     E  Q    E  Q    E  E     Q    E  E  Q    E  E   
------------------------|------------------------|------------------------|
--3---------------1--3--|---------------------1--|--3---------------1--3--|
-------2--0--2----------|--0--2----0--2----2-----|-------2--0--2----------|
------------------------|--0--L------------------|------------------------|
------------------------|------------------------|------------------------|
--0----L--L--L----0--0--|----------0--L----0--L--|--3----L--L--L----3--3--|


  E  Q    E  Q    E  E     Q    E  E  Q    E  E     E  Q    E  Q    E  E   
------------------------|------------------------|------------------------|
---------------------1--|--3---------------1--3--|---------------------1--|
--0--2----0--2----2-----|-------2--0--2----------|--0--2----0--2----2-----|
------------------------|------------------------|------------------------|
------------------------|------------------------|------------------------|
--3-------3--L----3--L--|--3----L----------3--3--|--3--L----3--L----3--L--|


  Q    E  E  Q    E  E     E  Q    E  Q    E  E     Q    E  E  Q    E  E   
------------------------|------------------------|------------------------|
--3---------------1--3--|---------------------1--|--3---------------1--3--|
--2----2--0--2----0--2--|--0--2----0--2----2--0--|--2----2--0--2----0--2--|
-------0-----0----------|-----0-------0----0-----|-------0-----0----------|
--1----L----------1--1--|------------------1--L--|--1----L----------1--1--|
------------------------|------------------------|------------------------|


  E  Q    E  Q    E  E     Q    E  E  Q    E  E     E  Q    E  Q    E  E   
------------------------|------------------------|------------------------|
---------------------1--|--3---------------1--3--|---------------------1--|
--0--2----0--2----2--0--|--2----2--0--2----0--2--|--0--2----0--2----2--0--|
-----0-------0----0-----|-------0--L--0----------|-----0-------0----0-----|
------------------1--L--|------------------------|------------------------|
------------------------|--5---------------5--5--|--5-------5--L----5-----|


  Q    E  E  Q    E  E     E  Q    E  Q    E  E       Q    E  E  E  E  E  E   
------------------------|------------------2--3--||---5----3--5--2--3--5--L--|
--3---------------1--3--|------------------3--4--||---7----4--7--3--4--7--L--|
--2----2--0--2----0--2--|--0--2----0--2----------||*-------------2-----------|
-------0-----0----------|-----0-------0----------||*-------------0-----------|
------------------------|------------------------||--------------------------|
--1----L--L--L----1--1--|--1--L----1--L----------||---0----L--L--L--L--0--0--|


  E  E  E  E  Q    E  E     Q    E  Q    E  Q       E  E  E  E  Q    E  E     
--3--5--2--3--5----6--5--|--3----2--2------------|-------------------2--3---||
--4--7--3--4--7----8--7--|--4----3--3----4--4----|--3--4--3--1--3----3--4---||
-------------------------|----------2----5--5----|--2--3--2--0--2----------*||
--0--L--------0----------|----------0------------|--0--L--L-----0----------*||
-------------------------|-----------------------|--------------------------||
--------0----------0--L--|--0----L--L----L--0----|-------------------0--L---||


  E  E  E  E  Q    Q        H         Q    E  E      Q    Q    Q    Q     
------------------------|--10--------10----8--L--|--10----5----5----6----|
--3--4--3--1--3---------|--10--------10----8--L--|--10----3----3----4----|
--2--3--2--0--2---------|---7---------7----5--L--|---7----2----2----3----|
--0--L--L-----0---------|---------------------0--|--------0---------0----|
------------------------|------------------------|-----------------------|
-------------------0----|---0---------0----------|---0---------0---------|


  Q    Q    Q.     E     Q    Q    H           H         Q    E   E   
--8----6----8---------|-------5----6--------|--5--------10-------10--|
--6----4----8------3--|--L---------4--------|--3--------10-------10--|
--5----3----5------2--|--L----7----3--------|--2---------7----7------|
-------0-----------0--|--L----0-------------|------------------------|
----------------------|---------------------|------------------------|
--0---------0---------|------------0--------|--0---------0-----------|


  Q     Q    H           Q    Q    E  Q    E     Q    E  Q    E  Q     
--8----10----5--------|--3----5----6--5----6--|--5----6--5----6--5----|
--8----10----3--------|--1----3----4--4----4--|--4----4--4----4--4----|
--5-----7----2--------|--0----2----3--2----3--|--2----3--2----3--2----|
-------------0--------|--3----0---------------|-----------------------|
----------------------|-----------------------|-----------------------|
--------0-------------|------------0-------0--|-------0--L----0--L----|


  Q    Q    H           W                  
--6----5----5--------|--L----------------||
--4----4----3--------|--L----------------||
--3----2----2--------|--L----------------||
------------0--------|--L----------------||
---------------------|-------------------||
--0------------------|-------------------||




Duration Legend
---------------
W - whole
H - half
Q - quarter
E - 8th
S - 16th
T - 32nd
X - 64th
. - note dotted
|-n-|  - n-tuplets


Tablature Legend
----------------
L - tied note
x - dead note
g - grace note
(n) - ghost note
> - accentuded note
NH - natural harmonic
AH - artificial harmonic
TH - tapped harmonic
SH - semi harmonic
PH - pitch harmonic
h - hammer on
p - pull off
b - bend
br - bendRelease
pb - preBend
pbr - preBendRelease
brb - bendReleaseBend
\n/ - tremolo bar dip
\n - tremolo bar dive
-/n - tremolo bar Release up
/n\ - tremolo bar inverted dip
/n - tremolo bar return
-\n - tremolo bar Release down
S - shift slide
s - legato slide
/ -  slide into from below or out of upwards
\ -  slide into from above or out of downwards
~ - vibrato
W - wide vibrato
tr - trill
TP - tremolo picking
T - tapping
S - slap
P - pop
< - fade in
^ - brush up
v - brush down
Login or Register to remove this ad.