Ads

Geralt of Rivia (The Witcher 3: Wild Hunt) Guitar Tab

Submitted: Aug 19, 2015 by IkuinenOnni

5
Average: 5 (3 votes)
Download | Listen
Game: The Witcher 3: Wild Hunt
Composer(s): Marcin PrzybyƂowicz, Mikolai Stroinski, Percival
Style: Arrangement, Fingerstyle

AutoScroll: Slow | Medium | Fast
                                Geralt Of Rivia                                 


Nylon Guitar
     E  E  E  E  Q    Q       E  E  E  E  H           E  E  E  E  H         
E||------------------------|-----------------------|-----------------------|
B||-------------------0----|-----------------------|--0--------------------|
G||--0--------0--0---------|--2--------0--0--------|-----------0--0--------|
D||--------2---------------|--------2--------------|--------2--------------|
A||-----2------------------|-----2-----------------|-----2-----------------|
E||--0---------------------|--0--------------------|--0--------------------|


  E  E  H        Q       E  E  E  E  Q    E  E     E  E  E  E  Q    E  E   
----------------------|-------------------------|-------------------------|
----------------------|-------------------0-----|-------------------------|
--------0-------------|-------------------------|--2----------------------|
--------2--------0----|--2--------2--2----------|--2--------2--4----------|
-----2--2-------------|--3-----3----------3-----|--3--0--3-----5----3--0--|
--0-------------------|-----3----------------3--|-------------------------|


  E  E  E  E  Q    E  E     E  E  E  E  Q    E  E     E  E  E  E  Q    Q     
-------------------------|-------------------------|--0---------------------|
-------------------------|-------------------------|--------------3---------|
--0-----------0----------|--------------4----------|--0-----0----------2----|
--2--------2-------2-----|--4--------4-------------|--2-----------0----4----|
--3-----3-------------3--|--5-----5----------5-----|-----2-----2-------0----|
-----3-------------------|--7--7----------------7--|--0-----------2---------|


  E  E  E  E  Q    Q       E  E  E  E  E  E  E  E     E  E  E  E  Q    Q     
------------------------|--------------------------|------------------------|
--0----------------3----|--------0-----------------|--------------3---------|
--0-----0----------2----|--0-----------2-----0-----|--------------2---------|
--0--0-----0--4----0----|--2--------2-----2--------|--4--------4--0---------|
--2-----------3---------|--3-----3-----------3-----|--5-----5----------0----|
--3-----------5---------|-----3-----------------3--|--5--5------------------|


  E  E  E  E  E  E  E  E     E  E  E  E  E  E  E  E   
--------------------------|--------------------------|
-----0-----0-----0-----0--|-----0-----0-----0-----0--|
--0-----0-----0-----0-----|--0-----0-----0-----0-----|
--2-----------------4-----|--------------2-----------|
--2-----------------------|-----------0--------------|
--0-----------------2-----|--3-----------0-----------|


  S S S S S S S S S S S S S S S S    S S S S S S S S S S S S S S S S  
--0---0---0---0---0---0---0---0---|--2---2---2---2---3---3---3---3---|
--1---1---1---1---1---1---1---1---|--3---3---3---3---4---4---4---4---|
----0---0---0---0---0---0---0---0-|----2---2---2---2---2---2---2---2-|
----------------------------------|--0-L-L-0-L-L-0-L-0-L-L-1-L-L-1-L-|
--3-L-L-3-L-L-3-L-3-L-L-3-L-L-3-L-|----------------------------------|
----------------------------------|----------------------------------|


  S S S S S S S S S S S S S S S S    S S S S S S S S S S S S S S S S  
--3---3---3---3---3---3---2---0---|--3---0---0---5---0---------------|
--5---5---5---5---5---5-----------|----0---0---0---0-----0---0---0---|
----4---4---4---4---4---4---4---4-|--------------------0---0---0---0-|
----------2-L-L-L-----------------|------------------------2-L-L-2-L-|
----------------------------------|--------------0-L-----------------|
--0-L-L-L-0-L-L-L-0-L-L-L-2-L-L-L-|--3-L-L-L-L-L-----0-L-L-0-L-L-0-L-|


  S S S S S S S S S S S S S S S S    S S S S S S S S S S S S S S S S  
--0-------7-------5-------2-------|--3-----------2-3-5---------------|
--1---1-------5-------5-------5---|------3---3---------0-4-0-4-0-4-0-|
----0---0---5---5---5---5---5---5-|----2---2---2---------------------|
----------------------------------|--0-L-L-0-L-L-0-L-0-L-L-1-L-L-1-L-|
--3-L-L---3-L-----3-L-L-----------|----------------------------------|
----------------------------------|----------------------------------|


  S S S S S S S S S S S S S S S S    S S S S S S S S S S S S S S S S  
--7-------------------------------|------------------8-------7-------|
--8-0-5-0-8-0-5-0-8-0-5-0-8-0-5-0-|--8-0-5-0-8-0-5-0---5---5-----5---|
----------------------------------|----------------------5-----4---4-|
----------------------------------|----------------------------------|
----------------------------------|----------------------------------|
--0-L-L-0-L-L-0-L-0-L-L-0-L-L-0-L-|--0-L-L-0-L-L-0-L-0-L-L---0-L-----|


  S S S S S S S S S S S S S S S S    S S S S S S S S S S S S S S S S  
--6-------3-------8-------3-------|--7-------3---------------7-------|
------5-------5-------5-------5---|----0-5-0---0-5-0-5-0-5-------5---|
----3---3---3---3---5---5---5---5-|------------------------4---4---4-|
----------------------------------|--------------------------2-L-----|
----------------------------------|----------------------2-L-----2-L-|
--0-L-L---0-L-----0-L-L---0-L-----|--0-L-L-0-L-L-0-L-0-L-------------|


  S S S S S S S S S S S S S S S S    S S S S S S S S S S S S S S S S  
--5-----------7-5-2---------------|--3---5---7-----------------------|
------5---5-----------5---5---5---|--5-0-7-0-8-0-5---5---5---5---5---|
----5---5---5-------5---5---5---5-|----------------4---5---5---5---5-|
----------2-L-------------2-L-----|----------------------------------|
------3-L-----3-L-----3-L-----3-L-|--------------------------7-L-----|
--0-L-------------0-L-------------|--0-L-7-L-0-L-7-L-0-L-8-L-L-L-8-L-|


  S S S S S S S S S S S S S S S S    S S S S S S S  S S S S S S S S S  
--------------------------7-------|--5-----------7-10-7---------------|
--5---5---5---5---5---5-------5---|------4---4------------4---4---4---|
----7---7---7---7---7---7---7---7-|----4---4---4--------4---4---4---4-|
----------------------------------|----------1-L--------------1-L-----|
------5-L-7-L-5-L-----5-L-7-L-5-L-|------2-L--------------2-L-----2-L-|
--0-L-------------0-L-------------|--0-L---------0----0-L-------------|


  H.           E  E     E  E  E  E  E  E  E  E     E  E  E  E   E  E  E  E   
---------------------|--0-----------------7-----|--5-----------10-----------|
--0------------------|--------------0-----------|--3------------8-----------|
--0------------------|--0-----------0-----4-----|--2-----2---------7--------|
--1------------------|--2--------2-----2--------|---------------------7-----|
--2------------------|--------2-----------------|-----5-----5--10--------7--|
--0------------0--0--|--0--0--------------7--0--|--2------------------------|


  E  E  E  E  E  E  E  E     E  E  E  S S E  E  E  E   
--7-----------7-----------|-----------5-3-2--3--0-----|
--8-----------8-----------|---------------0--------3--|
--9--------9-----9--------|---------------0-----------|
--9-----9-----------9-----|-----------2-L----2--------|
--7--7-----------------7--|--------2------------2-----|
--------------------------|--0--0------------------0--|


  E  E  E  E  E  E  E  E     E  E  E  E  E  E  E  E   
--0-----------------7-----|--5-----------2-----------|
--------------------------|--3-----------------------|
--0-----------0-----4-----|--2-----------0-----------|
--2--------2-----2--------|-----------2--4--2--------|
--3-----3-----------3-----|--3-----3-----------3--3--|
-----3-----------------3--|-----3--------------------|


  S S E  E  E  E  E  E  E     S S E  E  E  E  E  E  E   
--3-2-0--------------3-----|------0-----------0--2--5--|
---------------2-----------|--1-3----------3-----------|
--2---------2-----2--------|--0------------------------|
---------2-----------2-----|---------------0-----0-----|
--0-L-0-----------------0--|--3-L----3--------0-----0--|
---------------------------|------3-----3--------------|


  E  E  E  S S E  E   E  E     E  E  E   E  E   E  E  E   
--0----------7-5-----10-----|--7-------------------------|
---------------0------------|--8-------------------------|
--0--------0-4-2--0---7-----|--9-------------------------|
--2-----2----------------9--|---------------9------------|
-----2----------------7-----|--7-----7--10-----10--7-----|
--0-------------------------|-----7-------------------7--|


  E  E  E  S S E  E   E   E     E  E  E  S S S S S S E  E   
--0----------7-5--7--10--12--|--7--------0-2-3-2-0---0-----|
---------------0-------------|---------------0-L---3----3--|
--0--------0-4-2--4---7---9--|--4--------0-L-----0-L-------|
--2-----2--------------------|--------2--------------2-----|
-----2----------------7------|-----2--------------------2--|
--0-----------------------7--|--0--------------------------|


  E  S S E  E  E  E  E  S S    E  S S E  E  E  S S E  E   
--0----7-5--2--3--------3-5-|--0----7-5--2--3--2-0----2--|
--1---------1--5------------|--1------------5------3-----|
---------0-----5--5---------|---------2-----5------------|
---------------------5------|-----2-L----2------------4--|
--3--3-L----------------3-L-|--0------------3------2-----|
----------------------------|------------------3-L-------|


  E  E  E  E  H           W                  
--0--------------------|-------------------||
-----------------------|-------------------||
--0--------0--0--------|--L----------------||
--------2-----2--------|--L----------------||
-----2--------2--------|--L----------------||
--0-----------0--------|--L----------------||




Duration Legend
---------------
W - whole
H - half
Q - quarter
E - 8th
S - 16th
T - 32nd
X - 64th
. - note dotted
|-n-|  - n-tuplets


Tablature Legend
----------------
L - tied note
x - dead note
g - grace note
(n) - ghost note
> - accentuded note
NH - natural harmonic
AH - artificial harmonic
TH - tapped harmonic
SH - semi harmonic
PH - pitch harmonic
h - hammer on
p - pull off
b - bend
br - bendRelease
pb - preBend
pbr - preBendRelease
brb - bendReleaseBend
\n/ - tremolo bar dip
\n - tremolo bar dive
-/n - tremolo bar Release up
/n\ - tremolo bar inverted dip
/n - tremolo bar return
-\n - tremolo bar Release down
S - shift slide
s - legato slide
/ -  slide into from below or out of upwards
\ -  slide into from above or out of downwards
~ - vibrato
W - wide vibrato
tr - trill
TP - tremolo picking
T - tapping
S - slap
P - pop
< - fade in
^ - brush up
v - brush down
Login or Register to remove this ad.