Ads

Journey (Dream of Flight) (The Wind Rises) Guitar Tab

Submitted: Apr 11, 2014 by Basisti94

5
Average: 5 (5 votes)
Download | Listen
Game: The Wind Rises
Composer(s): Joe Hisaishi
Style: Arrangement, Fingerstyle

This song is also called Main Theme

AutoScroll: Slow | Medium | Fast
                       Journey (Dream of Flight)
                                
The Wind Rises
Joe Hisaishi
Guitar Arrangement by Basisti94 (Miro Laaksonen)
11.4.2014

--------------------------
A beautiful track from the new final Hayao Miyazaki movie.
Listen the song for those two fast strumming parts to get 
a similar feel to them.
--------------------------


Tempo ~ 76
                           ^                       ^    ^               
     H.           E.  S    Q    Q.     E  E  E     Q    H        E  E   
E||---------------------|--------------------0--|----------------0--2--|
B||---------------0-----|-----------------0-----|--2----3--------------|
G||-------------------2-|--0-----------0--------|--3----4--------------|
D||---------------0-----|--0----0---------------|----------------------|
A||-------------------3-|--2--------------------|----------------------|
E||---------------------|--3--------------------|--3-------------------|


              ^                                             
                                              |-3-|         
  E  E  E  E  E.  T T E  E     E  E  E  E  E  S S S E  S S  
--3-------------------------|--0---------------------------|
-----------0--2---3-2-0--2--|--------3--------------3----4-|
--------------0-------------|-----2-----2------------------|
--------2-------------------|--0-----------0----0----------|
-----2--------0-------------|-----------------3---3-2--0---|
--0-------------------------|------------------------------|


  ^  ^                           ^                                          
  E  E  Q    Q    E.  S    E  E  Q    Q    Q       E  E  E  E  E  E  E  E   
------------------------|-----------------------|--3--------------2--0-----|
--4--5------------------|-----0------------3----|--------0--1--0--------4--|
--4--5------------2---3-|--3--------------------|--------------------------|
--------5---------------|--------0--------------|--------------------------|
--3---------------------|--------2--------------|-----2--------2-----------|
-------------3----------|--3----------3----2----|--0-----------------------|


                           ^                                      
  E  E  Q.     E  E  E     E  E  E  E  E  E  E  E     E  Q    E   
------------------------|--------------------------|-------------|
--4--5---------4--3-----|--0--------0--1-----------|-------------|
--------5------------5--|-----2--2--------0--------|--2--0----2--|
-----5------------------|--2--------0--2-----4--2--|-------------|
--3---------------------|--0-----------------------|--3----------|
------------------------|--------------------------|-------------|


  ^                             ^          ^               
  |----3----|                              |----3----|     
  Q    Q    Q    E  E  E  E     Q.     S S Q    Q    Q     
-----------------------------|-------------3----1---------|
-----------------------3--1--|--3------2-3-----------4----|
--0--------------------------|--0----------0--------------|
--1----0------------0--------|--0----------1--------------|
------------3----2-----------|----------------------------|
--3--------------------------|--3-------------------------|


  ^                ^  ^     ^                            ^    ^                
                                       |----3----|                             
  Q.     S S E  E  E  E     Q.     S S Q    Q    Q       Q    Q.     E  E  E   
-------------------------|-------------1--------------|--------------------1--|
--3--------1-3-----1--0--|--1------0-1------4----1----|--2----3---------3-----|
--3------3---------2--1--|--2-------------------------|--2----3------3--------|
--3-------------0--------|--3-------------------------|-----------------------|
--1----------------------|----------------------------|--1--------------------|
-------------------------|--1-------------------------|-----------------------|


               |----3----|                    |----3----|         
  E  E  E  S S Q    Q    Q       E  Q     S S Q    Q    Q     
--2--3-----2-3-5----3---------|-----1-----0-1-3----1---------|
-------------------------2----|--3-----3----------------3----|
--------0---------------------|-----2------------3-----------|
------------------------------|---------------1--------------|
--3---------------------------|--1---------------------------|
---------------1--------------|------------------------------|
				 E  E  Q      E  Q.


  |----3-----|                   |----3-----|                                  
  Q    Q     Q    Q     Q        Q    Q     Q    Q    Q       Q    S S S S  
-------------0----3-----2-----|--0----2-----3----7----5----|--L------------|
--2----3-------------1--------|----------------------------|-------0-1-0---|
-----2---------0-----------3--|----------0-------5----5----|--L----------2-|
----------2-------0-----------|---------------2--0----0----|--L----0-------|
--0---------------------------|--3-------------------------|---------------|
------------------------------|----------------------------|---------------|
  E  E    E    E  E  Q     E     Q       E    E  Q    Q 


  E  E  E  E  E  E  S S S S    E  E  E  E  E  E  E  E   
--------------------------0-|--1-----2-----------0--2--|
------------------------0---|--------3-----5-----------|
--0-----------2-------0-----|-----2-----2-----2--------|
--------0--------0--0-------|--0-----------------------|
-----2-----2--------2-------|--------------------------|
--3-------------------------|--------------------------|


              ^                                             
                                              |-3-|         
  E  E  E  E  E.  T T E  E     E  E  E  E  E  S S S E  S S  
--3-------------------------|--0---------------------------|
-----------0--2---3-2-0--2--|--------3--------------3----4-|
--------------0-------------|-----2-----0------------------|
-----------0----------------|--0-----------0----0----------|
-----2--4-----0-------------|-----------------3---3-2--0---|
--0-------------------------|------------------------------|


                                         ^                                     
  E  E  E  E  E  E  E  E     E  E  E  E  Q    E.  S    E  S E.  E  E.  E.  E   
-----0--------------------|-----------3-------3---5-|--7--------7--8---7---5--|
--4--------------0-----1--|--2--3--------0----------|-----0-------------------|
--------0--2-----0-----2--|--0-----------0----------|-------7------5----------|
--------------------0-----|--------4-----2----1-----|--0-----------0----------|
--3-----------0-----------|-------------------------|-------------------------|
--------------------------|-------------------------|-------------------------|


  E  E  E  S S  E  E  E  E     S S S S E  E  E  E  E  E   
--5-----3-------------------|--------0-------------------|
--------0-------------------|------0---2--3--------------|
-------------2p-0-----------|----0-----------0-----0-----|
-----0-----0-------0-----0--|--0---0------0-----0-----0--|
----------------------0-----|----------------------------|
--3-------------------------|--3-------------------------|

Tempo ~ 54
   ^  v  ^  v  ^  v  ^  v  ^  v  ^  v  ^  v  ^  v  ^  v  ^  v  ^  v  ^  v  ^  v 
   T  T  T  T  T  T  T  T  T  T  T  T  T  T  T  T  T  T  T  T  T  T  T  T  T  T 
--10-10-10-10-10-10-10-10-10-10-10-10-10-10-10-10-10-10-10-10-10-10-10-10-10-10-
---8--8--8--8--8--8--8--8--8--8--8--8--8--8--8--8--8--8--8--8--8--8--8--8--8--8-
---7--7--7--7--7--7--7--7--7--7--7--7--7--7--7--7--9--9--9--9--9--9--9--9--9--9-
---5-----------------------------------------------7----------------------------
--------------------------------------------------------------------------------
--------------------------------------------------------------------------------


  ^ v ^ ^ v ^ v ^ v ^ v ^ v ^ v ^ ^ v ^ v ^ v ^ v ^ v ^ v ^ v ^ v  
  T T T T T T T T T T T T T T T T T T T T T T T T T T T T T T T T  
--8-8-8-8-8-8-8-8-8-8-8-8-8-8-8-8-7-7-7-7-7-7-7-7-7-7-7-7-7-7-7-7-|
--7-7-7-7-7-7-7-7-7-7-7-7-7-7-7-7-8-8-8-8-8-8-8-8-8-8-8-8-8-8-8-8-|
--7-7-7-7-7-7-7-7-7-7-7-7-7-7-7-7-7-7-7-7-7-7-7-7-7-7-7-7-7-7-7-7-|
--5---------------------------------------------------------------|
------------------------------------------------------------------|
------------------------------------------------------------------|


  ^ v ^ v ^ v ^ v ^ v ^ v ^ v ^ v ^ v ^ v ^ v ^ v ^ v ^ v ^ v ^ v  
  T T T T T T T T T T T T T T T T T T T T T T T T T T T T T T T T  
--0-0-0-0-0-0-0-0-0-0-0-0-0-0-0-0-2-2-2-2-2-2-2-2-2-2-2-2-2-2-2-2-|
--3-3-3-3-3-3-3-3-3-3-3-3-3-3-3-3-5-5-5-5-5-5-5-5-5-5-5-5-5-5-5-5-|
--4-4-4-4-4-4-4-4-4-4-4-4-4-4-4-4-6-6-6-6-6-6-6-6-6-6-6-6-6-6-6-6-|
--5---------------------------------------------------------------|
--------------------------------------------------0---------------|
------------------------------------------------------------------|


  ^ v ^ v ^ v ^ v ^ v ^ v ^ v ^ v ^ v ^ v ^ v ^ v ^ v ^ v ^ v ^ v  
  T T T T T T T T T T T T T T T T T T T T T T T T T T T T T T T T  
--2-2-2-2-2-2-2-2-2-2-2-2-2-2-2-2-3-3-3-3-3-3-3-3-3-3-3-3-3-3-3-3-|
--5-5-5-5-5-5-5-5-5-5-5-5-5-5-5-5-4-4-4-4-4-4-4-4-4-4-4-4-4-4-4-4-|
--5-5-5-5-5-5-5-5-5-5-5-5-5-5-5-5-4-4-4-4-4-4-4-4-4-4-4-4-4-4-4-4-|
------------------------------------------------------------------|
--0---------------------------------------------------------------|
------------------------------------------------------------------|


  ^ v ^ v ^ v ^ v ^ v ^ v ^ v ^ v     Tempo ~ 80                             
                                                               |----3-----|       
  T T T T T T T T T T T T T T T T E  E  E  E     Q.        S S Q    Q     Q     
--3-3-3-3-3-3-3-3-3-3-3-3-3-3-3-3-------------|----------------3---------------|
--3-3-3-3-3-3-3-3-3-3-3-3-3-3-3-3-------3-----|--3-----------3------6-----4----|
--4-4-4-4-4-4-4-4-4-4-4-4-4-4-4-4----------5--|-----3------6-------------------|
--5----------------------------------5--------|-------5------------------------|
----------------------------------------------|---------5--------------3-------|
----------------------------------------------|--3-------------3---------------|
						 E  S S Q      Q       Q


                                             |----3-----|       
  E  S S E  S S E.  S E  E     Q.        S S Q    Q     Q     
----------------------------|----------------1---------------|
--3-------------3-----1--0--|--1---------0-1------4-----1----|
-----3------3-5-------------|-----2--------------------------|
-------5------------0-------|-------4-0--------------0-------|
---------5------------------|--0-------------0---------------|
--3-------------3-----------|--------------------------------|
			       E  S S Q      Q       Q


                                          |----3-----|       
  E  E  E  E  E  E  E  E     E  Q     S S Q    Q     Q     
--------------------------|--2--3-----2-3-5----3----------|
--2-----3-----------3--6--|--------------------------2----|
-----0-----------3--------|-------------------------------|
-----------0--------------|-------------------------------|
--------------------------|--3-----3----------------------|
--3-----------3-----3-----|---------------1-------1-------|
			     Q     Q      Q       Q

		
               |----3-----|       |-----3-----|                          
  E  Q     S S Q    Q     Q       Q    Q      Q     Q     Q      
-----1-----0-1-3----1----------|--------------0-----3-----2-----|
--3-----------------------3----|--2----3---------------------1--|
-------------------------------|----------2-0----------0--------|
---------------1-------1-------|-----2------------2-0-----0-----|
--1-----1----------------------|--0-----------------------------|
-------------------------------|--------------------------------|
  Q     Q      Q       Q          E  E    S E     S E  E  E  E


  |----3-----|                                                             
  Q    Q     Q    Q    Q       Q    S S S S    Q    E  E  E  E  S S S S  
--0----2-----3----7----5----|--L------------|-------------------------0-|
----------------------------|-------0-1-0---|-----------------------0---|
----------0------------5----|--L----------2-|--0------------------0-----|
------------------0----0----|--L----0-------|-------0-----------0-------|
--3-------------------------|---------------|-------------0-------------|
----------------------------|---------------|--3-------3-----3----------|
  Q       Q       Q    Q      

                                         ^              
  E  E  E  E  E  E  E  E     E  E  E  E  E.  T T E  E   
--1-----2-----------0--2--|--3-------------------------|
--------------5-----------|-----------0--2---3-2-0--2--|
-----2-----2-----2--------|--------------0-------------|
--0-----------------------|-----------0----------------|
--------------------------|-----2--4-----0-------------|
--------------------------|--0-------------------------|


                 |-3-|                                    
  E  E  E  E  E  S S S E  S S    E  E  E  E  E  E  E  E   
--0---------------------------|-----0--------------------|
--------3--------------3----4-|--4--------------0-----1--|
-----2-----2------------------|-----------2-----0--------|
--0-----------0----0----------|--------------------0-----|
-----------------3---3-2--0---|--3-----3-----0-----------|
------------------------------|--------------------------|


                            ^         ^                                       
  E  E  E  E  Q    E.  S    Q.     E  E.  E.  E     E  E  E  S S E  E  E  E   
-----------3-------3---5-|--7------7--8---7---5--|--5-----3------------------|
--2--3-------------------|--8--------------------|--------0------------------|
--0----------------------|--7---------5----------|-------------2-0-----------|
--------4-----2----1-----|--0---------0----------|------------------0--------|
-------------------------|-----------------------|---------------------------|
-------------------------|-----------------------|--3--3--3--3---3--3--3--3--|


  E  E  S S S S E  E  E  E   
--------------0-------------|
------------0---2--3--------|
----------0-----3--4--------|
--------0-------------------|
----------------------------|
--3--3--3---3---3--3--3--3--|

Tempo ~ 54
  ^ v ^ v ^ v ^ v ^ v ^ v ^ v ^ v ^ v ^ v ^ v ^ v ^ v ^ v ^ v ^ v  
  T T T T T T T T T T T T T T T T T T T T T T T T T T T T T T T T  
------------------------------------------------------------------|
--3-3-3-3-3-3-3-3-3-3-3-3-3-3-3-3-3-3-3-3-3-3-3-3-3-3-3-3-3-3-3-3-|
--4-4-4-4-4-4-4-4-4-4-4-4-4-4-4-4-4-4-4-4-4-4-4-4-4-4-4-4-4-4-4-4-|
--5-5-5-5-5-5-5-5-5-5-5-5-5-5-5-5-5-5-5-5-5-5-5-5-5-5-5-5-5-5-5-5-|
--5---------------------------------------------------------------|
--3---------------------------------------------------------------|


  ^ v ^ v ^ v ^ v ^ v ^ v ^ v ^ v ^ v ^ v ^ v ^ v ^ v ^ v ^ v ^ v  
  T T T T T T T T T T T T T T T T T T T T T T T T T T T T T T T T  
------------------------------------------------------------------|
--4-4-4-4-4-4-4-4-4-4-4-4-4-4-4-4-4-4-4-4-4-4-4-4-5-5-5-5-5-5-5-5-|
--3-3-3-3-3-3-3-3-3-3-3-3-3-3-3-3-3-3-3-3-3-3-3-3-5-5-5-5-5-5-5-5-|
--5-5-5-5-5-5-5-5-5-5-5-5-5-5-5-5-5-5-5-5-5-5-5-5-5-5-5-5-5-5-5-5-|
------------------------------------------------------------------|
--3---------------------------------------------------------------|


  ^ v ^ v ^ v ^ v ^ v ^ v ^ v ^ v ^          
  T T T T T T T T T T T T T T T T H          
-------------------------------------------||
--5-5-5-5-5-5-5-5-5-5-5-5-5-5-5-5-5--------||
--5-5-5-5-5-5-5-5-5-5-5-5-5-5-5-5-5--------||
--5-5-5-5-5-5-5-5-5-5-5-5-5-5-5-5-5--------||
-------------------------------------------||
--3----------------------------------------||




Duration Legend
---------------
W - whole
H - half
Q - quarter
E - 8th
S - 16th
T - 32nd
X - 64th
. - note dotted
|-n-|  - n-tuplets


Tablature Legend
----------------
L - tied note
x - dead note
g - grace note
(n) - ghost note
> - accentuded note
NH - natural harmonic
AH - artificial harmonic
TH - tapped harmonic
SH - semi harmonic
PH - pitch harmonic
h - hammer on
p - pull off
b - bend
S - shift slide
s - legato slide
/ -  slide into from below or out of upwards
\ -  slide into from above or out of downwards
~ - vibrato
W - wide vibrato
tr - trill
TP - tremolo picking
T - tapping
S - slap
P - pop
< - fade in
^ - brush up
v - brush down
Login or Register to remove this ad.

3 comments on Journey (Dream of Flight)

Thanks for tab! Ending theme

5

Thanks for tab! Ending theme would be very nice too ^_^

I will definitely give it and

I will definitely give it and other tracks from the movie a look. Saw the movie a week ago and absolutely loved it. It made me sob like a little girl

Will be GREAT to see more

Will be GREAT to see more tabs from this movie!!
By the way, Kaze Tachinu remembered me "Three Comrades" (by Remarque) - the saddest book I've ever read. It is about war (actualy time is between WW1 & WW2) and it has similar love story.