Ads

Mii Plaza (Wii Channel) Guitar Tab

Submitted: Mar 21, 2012 by hslesperance (Last updated: Mar 30, 2014)

5
Average: 5 (8 votes)
Download | Listen
Game: Wii Channel
Composer(s): Kazumi Totaka
Style: Transcription

AutoScroll: Slow | Medium | Fast
Wii Channel
Mii Plaza
Composed by Kazumi Totaka
Tabbed by hslesperance
3/21/12

Standard Tuning

e---------9----------------------------9---------12---11-10-----------
B---7--10----10--7----------------7-10----10--7---9----8--7-----------
G------------------7-7-7------6-7-------------------------------------
D------------------6-6-6----------------------------------------------
A---------------------------------------------------------------------
E---------------------------------------------------------------------

e------9----9-----9---------------------------------------------------
B---9----7-----9-----8-7----------------------------------------------
G-------------------------9---9--9--9-----9--9--9---------------------
D----------------------------10-10-10----10-10-10---------------------
A-----------------------------9--9--9-----9--9--9---------------------
E---------------------------------------------------------------------

e---------------9-----------------12-12-12----------9--------9----7---
B---------7--10----10--7-----------9--9--9-----7-10----10--7----------
G---8--7--6--------------9-9-9----------------------------------------
D------------------------0-0-0----------------------------------------
A---------------------------------------------------------------------
E--------------------------------------------7------------------------

e---7--------7-----5-------------------------------------14-17--------
B-----8--------8-----7------6--------------11-12--14-15---------------
G-------7-6------6-----5-4----7-4-4-4-4-------------------------------
D---------------------------------------------------------------------
A---------------------------------2-2-2-------------------------------
E---------------------------------------------------------------------

e------------------------------2--------------------------------------
B----------------------------------2----------------------------------
G---2--3--4---3-4--------2-3-4-------4---3-4--------------------------
D---------------------------------------------------------------------
A---------------------------------------------------------------------
E---------------------------------------------------------------------

e------------------------------4--------------------------------------
B----------------------------------4-----4----------------------------
G---4--5--6---5-6--------6-5-6-------6-----4--------------------------
D---------------------------------------------------------------------
A---------------------------------------------------------------------
E---------------------------------------------------------------------
Login or Register to remove this ad.

1 comment on Mii Plaza

one of the wii things had a

one of the wii things had a catchy theme. I think it was the shop channel. Remember me and a friend just listening to it and getting it stuck in our heads for days haha.