Ads

The Wards (Mass Effect) Guitar Tab

Submitted: Jul 27, 2010 by Capt.Miller (Last updated: Jul 28, 2010)

0
Download | Listen
Game: Mass Effect
Composer(s): Jack Wall, Sam Hulick
Style: Arrangement

AutoScroll: Slow | Medium | Fast
Mass Effect - The Wards
Composed by Jack Wall
Tabbed by Capt. Miller

Standard tuning.

--10--9--5--5--X6----------------------7--5-----------
--------------------------7-8-7-10-7-8----------------
------------------------------------------------------
------------------------------------------------------
------------------------------------------------------
------------------------------------------------------

-------------------X5---
--7--8--10--10----------
------------------------
------------------------
------------------------
------------------------

----7----------X3--------------------X3-----
--7--10--10--------7--8--10--10-------------
--------------------------------------------
--------------------------------------------
--------------------------------------------
--------------------------------------------

--10--9--5--5---X6-------
-------------------------
-------------------------
-------------------------
-------------------------
-------------------------
Login or Register to remove this ad.