Ads

Human Theme (Warcraft II: Tides of Darkness) Guitar Tab

Submitted: Dec 16, 2016 by KAT

4.75
Average: 4.8 (4 votes)
Download | Listen
Game: Warcraft II: Tides of Darkness
Composer(s): Glenn Stafford
Style: Arrangement, Fingerstyle

AutoScroll: Slow | Medium | Fast
                                    Warcraft II - Human Theme
                                  Arrangement by KAT, 09.11.2017                                       


Guitar (Capo 3)
     H.           E  E     E  E  E  E  E  E  E  E     E  E  E  E  E  E  E  E   
E||---------------------|--------------------------|--------------------------|
B||------------------0--|--1-----------0-----------|--------0--------------0--|
G||---------------2-----|--------2-----------------|--------------2-----2-----|
D||---------------------|-----2-----2--------3-----|--2--------2-----2-----2--|
A||---------------------|--0--------------2-----2--|-----2--------0-----------|
E||---------------------|--------------0-----------|--0-----------------------|


  E  E  E  E  E  E  E  E     E  E  E  E  E  E  E  E     E  E  E  E  E  E  E  E   
--------0-----------------|--------------------------|--------------------------|
--1-----------4-----------|--------3-----2--------0--|--1-----------0-----------|
--------2-----------4-----|--3-----------------2-----|--------2-----------------|
-----2-----2-----4-----4--|--------3--------2--------|-----2-----2--------3-----|
--0-----------6-----------|-----5-----5--0-----------|--0--------------2-----2--|
--------------------------|--6-----------------------|--------------0-----------|


  E  E  E  E  E  E  E  E     E  E  E  E  E  E  E  E     E  E  E  E  E  E  E  E   
--------------------------|--------0-----------------|--------------------------|
--------0--------------0--|--1-----------4-----------|--3--------------------0--|
--------------2-----2-----|--------2-----------4-----|--------1-----2-----2-----|
--2--------2-----2-----2--|-----2-----2-----4-----4--|--------2--------2-----2--|
-----2--------0-----------|--0-----------6-----------|-----2-----2--0-----------|
--0-----------------------|--------------------------|--0-----------------------|


  E  S S E  E  E  E  E  E     E  S S E  E  E  E  E  E     E  S S E  E  E  E  E  E   
---------------------------|---------------------------|------------0--------------|
--1----0-1-----------------|------------0-----------0--|--1----0-1-----4-----------|
---------2-----4-----------|---------------2-----2-----|---------2-----------4-----|
-----2------2--------3-----|--2----1-2--------2-----2--|-----2------2-----4-----4--|
--0---------------2-----2--|-----2---------0-----------|--0------------6-----------|
---------------0-----------|--0------------------------|---------------------------|


  E  S S E  E  E  E  E  E     E  S S E  E  E  E  E  E     E  S S E  E  E  E  E  E   
---------------------------|---------------------------|---------------------------|
------------3--2--------0--|--1----0-1-----------------|------------0-----------0--|
--3----2-3-----------2-----|---------2-----4-----------|---------------2-----2-----|
---------3--------2--------|-----2------2--------3-----|--2----1-2--------2-----2--|
-----5------5--0-----------|--0---------------2-----2--|-----2---------0-----------|
--6------------------------|---------------0-----------|--0------------------------|


  E  S S E  E  E  E  E  E     E  S S E  E  E  E  E  E     E  E  E  E  E  E  E  E   
------------0--------------|---------------------------|--------------------------|
--1----0-1-----4-----------|--3----1-3--------------0--|--1-----------0-----------|
---------2-----------4-----|------------1--2-----2-----|--------2-----------------|
-----2------2-----4-----4--|---------2--------2-----2--|-----2-----2--------3-----|
--0------------6-----------|-----2------2--0-----------|--0--------------2-----2--|
---------------------------|--0------------------------|--------------0-----------|


  E  E  E  E  E  E  E  E     E  E  E  E  E  E  E  E     E  E  E  E  E  E  E  E   
--------------------------|--------0-----------------|--------------------------|
--------0--------------0--|--1-----------4-----------|--------3-----2--------0--|
--------------2-----2-----|--------2-----------4-----|--3-----------------2-----|
--2--------2-----2-----2--|-----2-----2-----4-----4--|--------3--------2--------|
-----2--------0-----------|--0-----------6-----------|-----5-----5--0-----------|
--0-----------------------|--------------------------|--6-----------------------|


  E  E  E  E  E  E  E  E     E  E  E  E  E  E  E  E     E  E  E  E  E  E  E  E   
--------------------------|--------------------------|--------0-----------------|
--1-----------0-----------|--------0--------------0--|--1-----------4-----------|
--------2-----------------|--------------2-----2-----|--------2-----------4-----|
-----2-----2--------3-----|--2--------2-----2-----2--|-----2-----2-----4-----4--|
--0--------------2-----2--|-----2--------0-----------|--0-----------6-----------|
--------------0-----------|--0-----------------------|--------------------------|


  E  E  E  E  E  E  E  E     E  E  E  E  E  E  E  E     E  E  E  E  E  E  E  E   
--------------------------|--------------------------|--------------------------|
--3--------------------0--|--1-----------0-----------|--------0--------------0--|
--------1-----2-----2-----|--------2-----------------|--------------2-----2-----|
--------2--------2-----2--|-----2-----2--------3-----|--2--------2-----2-----2--|
-----2-----2--0-----------|--0--------------2-----2--|-----2--------0-----------|
--0-----------------------|--------------0-----------|--0-----------------------|


  E  E  E  E  E  E  E  E     E  E  E  E  E  E  E  E     E  E  E  E  E  E  E  E   
--------0-----------------|--------------------------|--------------------------|
--1-----------4-----------|--------3-----2--------0--|--1-----------0-----------|
--------2-----------4-----|--3-----------------2-----|--------2-----------------|
-----2-----2-----4-----4--|--------3--------2--------|-----2-----2--------3-----|
--0-----------6-----------|-----5-----5--0-----------|--0--------------2-----2--|
--------------------------|--6-----------------------|--------------0-----------|


  E  E  E  E  E  E  E  E     E  E  E  E  E  E  E  E     E  E  E  E  H          
--------------------------|--------0-----------------|--------4-----5--------||
--------0--------------0--|--1-----------4-----------|--3-----------5--------||
--------------2-----2-----|--------2-----------4-----|--------------6--------||
--2--------2-----2-----2--|-----2-----2-----4-----4--|--------3-----7--------||
-----2--------0-----------|--0-----------6-----------|-----5-----5--7--------||
--0-----------------------|--------------------------|--6-----------5--------||
Login or Register to remove this ad.

2 comments on Human Theme

Pretty nice

4

Warcraft II is a game with very good music, it's too bad that there are very few tabs
thank you for this one

Indeed warcraft series has

Indeed warcraft series has many a good tune, can't say I'm familiar with any pre-warcraft II though. Was late jumping on the board for that. :(