Ads

CM Song (Violet Evergarden) Guitar Tab

Submitted: Aug 16, 2016 by tomorning

5
Average: 5 (4 votes)
Download | Listen
Game: Violet Evergarden
Composer(s): Unknown
Style: Arrangement, Artificial harmonics, Fingerstyle

AutoScroll: Slow | Medium | Fast
8/14/2016
                                     Violet Evergarden CM song 
                   ~ from anime "Violet Evergarden (ヴァイオレット・エヴァーガーデン)" ~

Music by unknown
arranged by to*morning


Standard tuning (E,A,D,G,B,E)

Moderato (q=78)



     E  E  E  E  H           E  E  E  E  E  E  E  E     E  E  E   E  E  E  E  E   
E||--5--3--2--0-----------|--2--0-----------5--3--2--|--0---------------0--2--5--||
B||--0-----------2--------|--3-----3--2--0-----------|-----3---------------------||
G||--0-----------2--------|--4-----------0-----------|---------------------2-----||
D||--------------4--------|--2-----------------------|--0-----2h--4--------------||
A||-----------------------|--------------0-----------|---------------------------||
E||-----------------------|--------------------------|---------------------------||

                                                         <*1>
  Q    E   S S E  E  E   E      E  E  E  E  E  E  E  E     E  E  E  S S Q.     E   
--8-------10-8-7------------|------------------2--0-----|----------------------2--|
------------------------10--|--10--8-----------------3--|--7--------8-7-5---------|
-------9-------------8------|---------7-----------------|--------4------3---------|
------------------7---------|------9--------------------|-----6-------------------|
--9-------------------------|---7-----------------------|--4------------4---------|
---------------7------------|------------0--------------|-------------------------|


  E  E  E  S  S E  E  E  S  S    E  E  E  E  Q    Q       E   E  Q    E  E  E.  S  
----------------0-------------|--5-----------9----7----|--5-----------3--2--------|
--3--------2h-3----------7s-8-|-----3--2--3-------5----|--3p--2-------------3---0-|
--------4-------------6-------|--------2---------------|---------2----------0-----|
-----4-------------4----------|-----4------------------|--------------------------|
--2---------------------------|--0---------------------|--------------0-----------|
----------------6-------------|--------------4---------|--0-----------------------|


                                 (*                        <*1> variation
        |--3--|    |----3----|                     
  E  E  E  E  E    E    E    E    Q
--------------2------------<>2---------||                 |-----------0--5----3--2--|
--3--------2----------<>2--------------||                 |--7-----------5----------|
--------2--------<>2-------------------||                 |--------4-----3----------|
-----4---------------------------------||                 |-----6-------------------|
--5------------------------------------||                 |--4-----------4----------|
---------------------------------------|| fine....        |-------------------------|

Login or Register to remove this ad.