Ads

Title Theme (A Valley Without Wind) Guitar Tab

Submitted: May 09, 2017 by Vaagur

5
Average: 5 (2 votes)
Download | Listen
Game: A Valley Without Wind
Composer(s): Pablo Vega
Style: Transcription

AutoScroll: Slow | Medium | Fast
Game Name: A Valley Without Wind.
Platform: PC.
Song Name: Title Theme.
Length: 2 Minutes 14 Seconds+.
Composer: Pablo Vega.
Instrument: Classical Guitar.
Tuning: Standard Tuning.
Date of Tabbing: 20 April 2017.
Tabber: Vaagur.
Link to Song: https://www.youtube.com/watch?v=eeP6SRIihis

e||-----------------|
B||-----------------| (Intro, play 4x at the beginning)
G||---2-2-2-2-2-2-2-|
D||-----------------|
A||-0L--------------|
E||-----------------|

e||--------------------------------------------------------------|
B||--------------------------------------------------------------|
G||--------------------------------------------------------------|
D||--------------------------------------------------------------|
A||---7----------------------------7-----------------------------|
E||-5-------8-7-5---3-5-7-0-0----5-------8-7-5---3-5-7----7-8-10-|

e||------------------------------------------------------------------|
B||------------------------------------------------------------------|
G||------------------------------------------------------------------|
D||------------------------------------------------------------------|
A||---7----------------------------7---------------------------------|
E||-5-------8-7-5---3-5-7-0-0----5-------8-7-5---3-5-7----7-8-10-7-5-|

e||--------------------------------------------------|
B||--------------------------------------------------| (Loop forever, skip intro)
G||--------------------------------------------------|
D||--------------------------------------------------|
A||----5-----0----7--5--3----0----3-2-3-5----0-8-7-3-|
E||--------------------------------------------------|
Login or Register to remove this ad.