Ads

Sunset (Valkyrie Drive: Mermaid) Guitar Tab

Submitted: Jun 19, 2017 by Coolbreeze

5
Average: 5 (1 vote)
Download | Listen
Game: Valkyrie Drive: Mermaid
Composer(s): Hiroaki Tsutsumi
Style: 2 or more instruments, Fingerstyle, Transcription, Tremolo

AutoScroll: Slow | Medium | Fast
					     Sunset
				~Valkyrie Drive: Mermaid Vol. 1~

Music by Hiroaki Tsutsumi
Performed by Hiroaki Tsutsumi
Tabbed by Coolbreeze
Tempo = 80

Standard Tuning


Guitar 1

     W                   W                   W                 
E||-------------------|-------------------|-------------------|
B||-------------------|-------------------|-------------------|
G||-------------------|-------------------|-------------------|
D||-------------------|-------------------|-------------------|
A||-------------------|-------------------|-------------------|
E||-------------------|-------------------|-------------------|


  W                   H.           E  E     Q.     E  Q.     E   
-------------------|---------------------|--0---------2---------|
-------------------|------------------0--|---------0---------0--|
-------------------|---------------------|----------------------|
-------------------|---------------------|----------------------|
-------------------|---------------------|----------------------|
-------------------|---------------------|----------------------|


    Q    Q    Q    Q       Q.     E  H           H.           E  E   
--4g5----4----0---------|---------------------|---------------------|
-------------------0----|--0------2--L--------|------------------0--|
------------------------|---------1--L--------|---------------------|
------------------------|---------------------|---------------------|
------------------------|---------------------|---------------------|
------------------------|---------------------|---------------------|


  Q.     E  Q.     E       Q    H        Q       H.           Q     
--0---------2---------|--4g5----4--------7----|--0-----------------|
---------0---------0--|------------------4----|--0-----------------|
----------------------|-----------------------|--------------------|
----------------------|-----------------------|--------------------|
----------------------|-----------------------|--------------------|
----------------------|-----------------------|--------------------|


  H.           E  E     Q.     E  Q.     E       Q    Q    Q    Q     
---------------------|--0---------2---------|--4g5----4----0---------|
------------------0--|---------0---------0--|-------------------0----|
---------------------|----------------------|------------------------|
---------------------|----------------------|------------------------|
---------------------|----------------------|------------------------|
---------------------|----------------------|------------------------|


  Q.     E  H           H.           E  E     Q.     E  Q.     E   
---------------------|---------------------|--0---------2---------|
--0------2--L--------|------------------0--|---------0---------0--|
---------1--L--------|---------------------|----------------------|
---------------------|---------------------|----------------------|
---------------------|---------------------|----------------------|
---------------------|---------------------|----------------------|


    Q    H        Q       Q.     E  Q    Q        H.            Q      
--4g5----4--------7----|--7------9--L---------|--12------------14s----|
------------------4----|----------------------|-----------------------|
-----------------------|----------------------|-----------------------|
-----------------------|----------------------|-----------------------|
-----------------------|----------------------|-----------------------|
-----------------------|----------------------|-----------------------|


   H        Q.     E     Q    E  Q    E  E  E     Q.      Q     Q    E   
--11--------7------9--|--L-------9----7--4--5--|--7------12----11----7--|
----------------------|------------------------|------------------------|
----------------------|------------------------|------------------------|
----------------------|------------------------|------------------------|
----------------------|------------------------|------------------------|
----------------------|------------------------|------------------------|


  Q    E   Q    E   Q        H        Q.       E     Q    E  Q    E    E  E   
--L-------16-------14----|--11--------7------6g7--|--L-------5----4----------|
-------------------------|------------------------|------------------5g7--5--|
-------------------------|------------------------|--------------------------|
-------------------------|------------------------|--------------------------|
-------------------------|------------------------|--------------------------|
-------------------------|------------------------|--------------------------|


  Q    E  Q    E  E  E     H         H           H        H         
---------------4--5--7--|--9--------11--------|--9--------7--------|
--7-------7-------------|---------------------|--------------------|
------------------------|---------------------|--------------------|
------------------------|---------------------|--------------------|
------------------------|---------------------|--------------------|
------------------------|---------------------|--------------------|


  H        E  E  E   E     E   S S Q.     E  E  E     E   Q    S  S Q    Q     
-----------------0h--2--|--2h--4-4-L---------2--4--|--5s--7-------------------|
--------------0---------|--------------------------|-----------5p-4-5----7----|
------------------------|--------------------------|--------------------------|
------------------------|--------------------------|--------------------------|
------------------------|--------------------------|--------------------------|
------------------------|--------------------------|--------------------------|


  Q.     E      Q     Q        E   E   S   S  E  E   E   E   E   
--4------9--10g11----------|--12--11--------------------12--14--|
---------------------12----|----------12s-14-12-----12----------|
---------------------------|------------------------------------|
---------------------------|------------------------------------|
---------------------------|------------------------------------|
---------------------------|------------------------------------|


   E    S  S Q.     E   E    E      E   Q     S  S Q.      E   
--14h--16-16-L---------14s--16--|--17--19----12-11-9------11--|
--------------------------------|-----------------------------|
--------------------------------|-----------------------------|
--------------------------------|-----------------------------|
--------------------------------|-----------------------------|
--------------------------------|-----------------------------|


   E   Q        Q     Q     E     E   Q     Q     E    E   E   
--12--------13g14----11----12--|--L--------16----14S--12--11--|
------12-----------------------|-----12-----------------------|
-------------------------------|------------------------------|
-------------------------------|------------------------------|
-------------------------------|------------------------------|
-------------------------------|------------------------------|


   Q     E   Q     Q     E      W                   H.           E  E   
--12--------14----11----12--|---L----------------|---------------------|
--------12------------------|--------------------|------------------0--|
----------------------------|--------------------|---------------------|
----------------------------|--------------------|---------------------|
----------------------------|--------------------|---------------------|
----------------------------|--------------------|---------------------|


  Q.     E  Q.     E       Q    Q    Q    Q       Q.     Q.     Q     
--0---------2---------|--4g5----4----0---------|---------------------|
---------0---------0--|-------------------0----|---------9------7----|
----------------------|------------------------|--6------9------8----|
----------------------|------------------------|--7------------------|
----------------------|------------------------|---------------------|
----------------------|------------------------|---------------------|


  E  H.           E     Q.     E  Q.     E       Q    Q.     E  Q     
---------------------|--0---------2---------|--4g5----4---------7----|
--L--9------------0--|---------0---------0--|------------------------|
--L--9---------------|----------------------|------------------------|
---------------------|----------------------|------------------------|
---------------------|----------------------|------------------------|
---------------------|----------------------|------------------------|


                                                TP                
  Q.     E  H            H         H            W                 
--7------9--L--------|--12--------14--------|--19----------------|
---------------------|----------------------|--------------------|
---------------------|----------------------|--------------------|
---------------------|----------------------|--------------------|
---------------------|----------------------|--------------------|
---------------------|----------------------|--------------------|


   W                    W                    W                 
---L----------------|---L----------------|---L----------------|
--------------------|--------------------|--------------------|
--------------------|--------------------|--------------------|
--------------------|--------------------|--------------------|
--------------------|--------------------|--------------------|
--------------------|--------------------|--------------------|


   H.           Q       W                  
---L-----------------|-------------------||
---------------------|-------------------||
---------------------|-------------------||
---------------------|-------------------||
---------------------|-------------------||
---------------------|-------------------||




Guitar 2

     ^                                                   
     E  E  S  S Q    Q    E     E  E  E  S  E.  E  Q     
E||--2--0-------0------------|--------------------------|
B||--2---------------0----0--|--L--2--------------------|
G||--2-----------------------|--------1--1s-2---1-------|
D||--------4s-6--------------|---------------------4----|
A||-----------------------0--|--L-----------------------|
E||--0-----------------------|--------------------------|


  ^                    ^                                               
  E  E  S  S Q    Q    E     E  E  E  E  H           W                 
--2--0-------0----7----7--|--L--------0--L--------|-------------------|
--2--------------------5--|--L-----2--------------|-------------------|
--2--------------------6--|--L--4-----------------|-------------------|
--------4s-6--------------|-----------------------|-------------------|
-----------------------0--|--L--------------------|-------------------|
--0-----------------------|-----------------------|-------------------|


  ^        ^           ^                                             
  H        H           Q    Q    Q    Q       E  E   E  Q    Q.      
--------------------|----------------------|------------------------|
--------------------|--2----0--------------|------------------------|
--1--------2--------|------------1---------|------------1-----------|
--------------------|-------2---------2----|-----2s--4-------4------|
--------------------|----------------------|--0---------------------|
--0--------0--------|--0-------------------|------------------------|


                           ^        ^           ^                   
  E  E   E  Q    Q.        H        H           Q    H        Q     
------------------------|--------------------|---------------------|
------------------------|--------------------|--2----0--------4----|
------------1-----------|--1--------2--------|----------------4----|
-----2s--4-------4------|--------------------|-------2-------------|
--0---------------------|--------------------|---------------------|
------------------------|--0--------0--------|--0------------------|


                                                                ^         
  E  E   E  Q    Q.        E  E   E  Q    Q.        E  E  E  E  H         
------------------------|------------------------|-----------------------|
--0---------------------|-----------------0------|-----------------------|
------------1-----------|------------1-----------|--------1-----2--------|
-----2s--4-------4------|-----2s--4--------------|-----2-----2-----------|
--0---------------------|--0---------------------|-----------------------|
------------------------|------------------------|--0-----------0--------|


  ^                                                                         
  Q    Q    Q    Q       E  E   E  Q    E  E  E     E  E   E  Q    Q    E   
----------------------|--------------------------|-------------------------|
--2----0--------------|--------------------------|-----------------0-------|
--2----1----1---------|------------1-------------|------------1------------|
------------2----2----|-----2s--4-------4--2--4--|-----2s--4------------2--|
----------------------|--0-----------------------|--0----------------------|
--0-------------------|--------------------------|-------------------------|


              ^           ^                                              
  E  E  E  E  H           Q    H        Q       E  E   E  Q    E  E  E   
-----------------------|---------------------|--------------------------|
-----------------------|--2----0--------4----|--------------------------|
--------1-----2--------|--2----1--------4----|------------1-------------|
-----2-----2-----------|---------------------|-----2s--4-------4--2--4--|
-----------------------|---------------------|--0-----------------------|
--0-----------0--------|--0----0-------------|--------------------------|


                       ^                                                
  H.           Q       E  E  E  E  E  Q    E     E  E  E  Q    E  Q     
--------------------|-------------------------|-----------0------------|
--0-----------------|--4-----------4-------2--|--L-----2----------2----|
--------------------|--4--------4-----4-------|-----2----------2-------|
--2-----------------|--4-----4----------------|------------------------|
--0-----------------|-----6----------------0--|--L---------------------|
--------------------|--4----------------------|------------------------|


  ^                                                ^                  ^   
  Q    E  Q    Q    E     E  E  E  Q    E  Q       Q    E  E  E  Q    E   
--0-------0------------|-----------7----4-------|------------------------|
---------------4----4--|--L--5-----5-------5----|--4----------4-------0--|
--2----2-------4----4--|--L--4------------------|--4-------------4-------|
-----------------------|--------6---------------|--4-------4-------------|
--2-----------------4--|--L---------------------|-------6-------------0--|
-----------------------|------------------------|--4---------------------|


                           ^                        ^        ^         
  E  E  E  Q    E  Q       E  E  E  Q    E  Q       H        H         
-----------0------------|--5--------2------------|--------------------|
--L-----2-------0--2----|--2-----2-------2-------|--2--------4--------|
-----2------------------|--2--2-------------2----|--2-----------------|
------------------------|--0---------------------|--2-----------------|
--L---------------------|------------------------|--2--------2--------|
------------------------|------------------------|--2-----------------|


  ^        ^                                ^                       
  H        H           H        H           Q    E  E  E  E  E  E   
--0--------2--------|--L-----------------|-------------------------|
-----------2--------|--L-----------------|--4----------------------|
--2-----------------|--------------------|--4----4-----------1-----|
--------------------|--------------------|--4----4--2--------2-----|
--2--------2--------|--L-----------------|--2-------------2-----2--|
--------------------|--------------------|-------------0-----------|


        ^    ^    ^                         ^                               
  E  E  Q    Q    Q       E  E  E  E  E  E  Q       E  E  Q    E  E  E  E   
-------------0----2----|--------------------0----|-------------------0-----|
-------------0----3----|--------0--2--------0----|--------0----------2-----|
--------5----1----2----|-----2-------------------|--------2-------2-----2--|
--------4----2----4----|-----------------2-------|-----2-------------------|
-----6------------2----|--0----------------------|-------------2-----------|
--4--------------------|--------------4-----0----|--2----------------------|


                                         ^                                    
  E  E  E  E  E  E  E  E     E  E  E  E  Q.     E     E  E  E  Q    E  E  E   
--------------------------|--------4-----0---------|--0----------------------|
--------0-----------0-----|--------4-----2---------|--2--2-----4----4-----2--|
--------------------------|-----1--------1---------|--1--1--x--4----4--x--2--|
--------4--2-----------2--|------------------------|--------x----------x--2--|
-----2-----------2--------|--3-----------1---------|--0----------------------|
--0-----------0-----------|------------------------|-----------4----------2--|


  E  E  E  S  S E  E  E  E     E  E  E  Q    E  E  E     W                 
----------------------------|-----0-------------------|-------------------|
--L--2-------------4--------|-----2-----4----4-----5--|--L----------------|
--L--2--x----------4--------|--2--1--x--4----4--x--4--|--L----------------|
--L--2--x-------4-----4-----|--------x----------x-----|-------------------|
----------------------------|--0-------------------5--|--L----------------|
--L--------2s-4----------4--|-----------4-------------|-------------------|


  ^                   ^        ^           ^         ^          
  W                   H        H           Q    Q    Q    Q     
--2----------------|--4--------5--------|--9----7----4---------|
--2----------------|--0-----------------|-----------------5----|
--4----------------|-----------6--------|--9----8----4----4----|
-------------------|--------------------|----------------------|
--2----------------|--------------------|----------------------|
-------------------|--0-----------------|--0-------------------|


  ^                                           ^        ^         
  Q.     Q.     Q       E  H.           E     H        H         
--2------4------2----|--L--4---------------|--4--------5--------|
--0------5------4----|--L--5---------------|--0-----------------|
---------------------|---------------------|-----------6--------|
---------------------|---------------------|--------------------|
--0------------------|---------------------|--------------------|
---------------------|---------------------|--0-----------------|


  ^                      ^                                     
  Q    H         Q       W                   W                 
--9----7--------11----|--2----------------|-------------------|
----------------12----|--0----------------|-------------------|
--9----8--------------|--2----------------|-------------------|
----------------------|--2----------------|-------------------|
----------------------|-------------------|-------------------|
--0-------------------|-------------------|-------------------|


  ^                                                   
  E  E  S  S Q    Q    E     E  E  E  S  E.  E  Q     
--2--0-------0------------|--------------------------|
--2---------------0----0--|--L--2--------------------|
--2-----------------------|--------1--1s-2---1-------|
--------4s-6--------------|---------------------4----|
-----------------------0--|--L-----------------------|
--0-----------------------|--------------------------|


  ^                    ^                                               
  E  E  S  S Q    Q    E     E  E  E  E  H           W                 
--2--0-------0----7----7--|--L--------0--L--------|--L----------------|
--2--------------------5--|--L-----2--------------|-------------------|
--2--------------------6--|--L--4-----------------|-------------------|
--------4s-6--------------|-----------------------|-------------------|
-----------------------0--|--L--------------------|--L----------------|
--0-----------------------|-----------------------|-------------------|


  ^                  
  W                  
-------------------||
--0----------------||
--1----------------||
--2----------------||
-------------------||
--0----------------||
Login or Register to remove this ad.

1 comment on Sunset

This is so nice

5

Excellent job on this one! It sounds perfect to me and good job getting the lead and harmony parts very well sorted.