Title Theme (Valkyria Chronicles) Guitar Tab

Submitted: Jan 20, 2019 by thunderbulb (Last updated: Feb 11, 2019)

3
Average: 3 (1 vote)
Download | No audio :(
Game: Valkyria Chronicles
Composer(s): Hitoshi Sakimoto
Style: Transcription
Series: Valkyria Chronicles

AutoScroll: Slow | Medium | Fast
Valkyria Chronicles - Title Theme
e|---------------------------------------------------------------------------|
B|----------------------5~-5-6-5-3~-1-0--------------------------------------|
G|--------2----2~-4-5-0-----------------2~-----------------------------------|
D|-2~-4-5---0~---------------------------------------------------------------|
A|---------------------------------------------------------------------------|
E|---------------------------------------------------------------------------|

e|-------------------------5~-5-6-5------------------------------------------|
B|------------------5-6-------------8-6-5------------------------------------|
G|----4-5-7----7~-7-----5~----------------7~---------------------------------|
D|-7~-------5~---------------------------------------------------------------|
A|---------------------------------------------------------------------------|
E|---------------------------------------------------------------------------|
Login or Register to remove this ad.