4th Race (Uniracers) Bass/Guitar Tab

Submitted: Aug 18, 2014 by Gabriel

0
Download | Listen
Game: Uniracers
Composer(s): Colin Anderson
Style: 2 or more instruments, Transcription

This song is also called 5th Race

Click here for a video example.

AutoScroll: Slow | Medium | Fast
xGuitarx
     W                   E   Q     Q    E  E  E     E   Q     Q    E  E  E   
E||-------------------|--------------------------|--------------------------|
B||-------------------|--------------------------|--------------------------|
G||-------------------|-----------------7--8--9--|-----------------7--8--9--|
D||-------------------|-----------------7--8--9--|-----------------7--8--9--|
A||-------------------|-----------------5--6--7--|-----------------5--6--7--|
E||-------------------|--5--(5)------------------|--5--(5)------------------|


  E   Q     Q    E  E  E     E   Q     Q    E  E  E     H.           Q     
--------------------------|--------------------------|--------------------|
--------------------------|--------------------------|--------------------|
-----------------7--8--9--|-----------------7--8--9--|--5-----------------|
-----------------7--8--9--|-----------------7--8--9--|--5-----------------|
-----------------5--6--7--|-----------------5--6--7--|--3-----------------|
--5--(5)------------------|--5--(5)------------------|--------------------|


  H.           Q       H.           Q       E.  E.  Q    E  E  E   
--------------------|--------------------|------------------------|
--------------------|--------------------|------------------------|
--5-----------------|--5-----------------|--5---4---5----4--5--7--|
--5-----------------|--5-----------------|--5---4---5----4--5--7--|
--3-----------------|--3-----------------|--3---2---3----2--3--5--|
--------------------|--------------------|------------------------|


  E   Q     Q    E  E  E     E   Q     Q    E  E  E   
--------------------------|--------------------------|
--------------------------|--------------------------|
-----------------7--8--9--|-----------------7--8--9--|
-----------------7--8--9--|-----------------7--8--9--|
-----------------5--6--7--|-----------------5--6--7--|
--5--(5)------------------|--5--(5)------------------|


  E   Q     Q    E  E  E     E   Q     Q    E  E  E     H.           Q     
--------------------------|--------------------------|--------------------|
--------------------------|--------------------------|--------------------|
-----------------7--8--9--|-----------------7--8--9--|--5-----------------|
-----------------7--8--9--|-----------------7--8--9--|--5-----------------|
-----------------5--6--7--|-----------------5--6--7--|--3-----------------|
--5--(5)------------------|--5--(5)------------------|--------------------|


  H.           Q       H.           Q       E.  E.  Q    E  E  E   
--------------------|--------------------|------------------------|
--------------------|--------------------|------------------------|
--5-----------------|--5-----------------|--5---4---5----4--5--7--|
--5-----------------|--5-----------------|--5---4---5----4--5--7--|
--3-----------------|--3-----------------|--3---2---3----2--3--5--|
--------------------|--------------------|------------------------|


  E   Q     Q    E  E  E     E   Q     Q    E  E  E   
--------------------------|--------------------------|
--------------------------|--------------------------|
-----------------7--8--9--|-----------------7--8--9--|
-----------------7--8--9--|-----------------7--8--9--|
-----------------5--6--7--|-----------------5--6--7--|
--5--(5)------------------|--5--(5)------------------|


  E   Q     Q    E  E  E     E   Q     Q    E  E  E     H.           Q     
--------------------------|--------------------------|--------------------|
--------------------------|--------------------------|--------------------|
-----------------7--8--9--|-----------------7--8--9--|--7-----------------|
-----------------7--8--9--|-----------------7--8--9--|--7-----------------|
-----------------5--6--7--|-----------------5--6--7--|--5-----------------|
--5--(5)------------------|--5--(5)------------------|--------------------|


  H.           Q       H.           Q       Q.     E  E.  S E.  S  
--------------------|--------------------|------------------------|
--------------------|--------------------|------------------------|
--7-----------------|--9-----------------|--9---------9-----8-----|
--7-----------------|--9-----------------|--9---------9-----8-----|
--5-----------------|--7-----------------|--7---------7-----6-----|
--------------------|--------------------|------------------------|


  H.           Q       H.           Q       H.           Q     
--------------------|--------------------|--------------------|
--------------------|--------------------|--------------------|
--7-----------------|--7-----------------|--9-----------------|
--7-----------------|--7-----------------|--9-----------------|
--5-----------------|--5-----------------|--7-----------------|
--------------------|--------------------|--------------------|


  Q.     E  E.  S E.  S    E.  E.  H        E     E.  E.  H        E   
------------------------|----------------------|----------------------|
------------------------|----------------------|----------------------|
--9---------9-----------|--7---7---7-----------|----------------------|
--9---------9-----5-----|--7---7---7-----------|--7---7---7-----------|
--7---------7-----5-----|--5---5---5-----------|--7---7---7-----------|
------------------3-----|----------------------|--5---5---5-----------|


  E.  E.  H        E     Q.     E  Q.     E     E.  E.  H        E   
----------------------|----------------------|----------------------|
----------------------|----------------------|----------------------|
--7---7---7-----------|--5-------------------|--7---7---7-----------|
--7---7---7-----------|--5---------5---------|--7---7---7-----------|
--5---5---5-----------|--3---------5---------|--5---5---5-----------|
----------------------|------------3---------|----------------------|


  E.  E.  H        E     E.  E.  H        E     Q.     E  Q.     E   
----------------------|----------------------|----------------------|
----------------------|----------------------|----------------------|
----------------------|--4---4---4-----------|--9---------9---------|
--7---7---7-----------|--4---4---4-----------|--9---------9---------|
--7---7---7-----------|--2---2---2-----------|--7---------7---------|
--5---5---5-----------|----------------------|----------------------|


  E  E  S  S S E  S E  E  E     E  E  S  S S E  S E  E  E   
-----------------------------|-----------------------------|
-----------------------------|-----------------------------|
-----------------------------|-----------------------------|
-----7--7p-5------5-------5--|-----7--7p-5------5-------5--|
-------------7-5----5--7-----|-------------7-5----5--7-----|
--5--------------------------|--5--------------------------|


  E  E  S  S S E  S E  E  E     E  E  S  S S E  S E  E  E   
-----------------------------|-----------------------------|
-----------------------------|-----------------------------|
-----------------------------|-----------------------------|
-----5--5p-3------3-------3--|-----5--5p-3------3-------3--|
-------------5-3----3--5-----|-------------5-3----3--5-----|
--3--------------------------|--3--------------------------|


  E  E  S  S S E  S E  E  E     E  E  S  S S E  S E  E  E   
-----------------------------|-----------------------------|
-----------------------------|-----------------------------|
-----------------------------|-----------------------------|
-----7--7p-5------5-------5--|-----7--7p-5------5-------5--|
-------------7-5----5--7-----|-------------7-5----5--7-----|
--5--------------------------|--5--------------------------|


  E  E  S  S S E  S E  E  E     E  E  S  S S E  S E  E  E   
-----------------------------|-----------------------------|
-----------------------------|-----------------------------|
-----------------------------|-----------------------------|
-----5--5p-3------3-------3--|-----5--5p-3------3-------3--|
-------------5-3----3--5-----|-------------5-3----3--5-----|
--3--------------------------|--3--------------------------|


  H.           Q       H.           Q       H.           Q     
--------------------|--------------------|--------------------|
--------------------|--------------------|--------------------|
--------------------|--------------------|--3-----------------|
--3-----------------|--5-----------------|--3-----------------|
--3-----------------|--5-----------------|--1-----------------|
--1-----------------|--3-----------------|--------------------|


  Q    Q    Q    Q       H.           Q       H.           Q     
----------------------|--------------------|--------------------|
----------------------|--------------------|--------------------|
--5----L----5----L----|--------------------|--------------------|
--5----L----5----L----|--3-----------------|--5-----------------|
--3----L----3----L----|--3-----------------|--5-----------------|
----------------------|--1-----------------|--3-----------------|


  H.           Q       Q    Q    Q    Q      
--------------------|----------------------||
--------------------|----------------------||
--3-----------------|--7----L----7----L----||
--3-----------------|--7----L----7----L----||
--1-----------------|--5----L----5----L----||
--------------------|----------------------||




xBassx
     W                   E  E  S S S E  S E  E  E   
G||-------------------|-----2--2-0------0----------|
D||-------------------|------------0-2----0--1--2--|
A||-------------------|--0-------------------------|
E||-------------------|----------------------------|


  E  E  S S S E  S E  E  E     E  E  S S S E  S E  E  E   
-----2--2-0------0----------|-----2--2-0------0----------|
------------0-2----0--1-----|------------0-2----0--1--2--|
--0-------------------------|--0-------------------------|
-------------------------3--|----------------------------|


  E  E  S S S E  S E  E  E     S S S S S S S S S S S S S S S S  
-----2--2-0------0----------|----------------------------------|
------------0-2----0--1-----|----------------------------------|
--0-------------------------|--3-3-3-3-3-3-3-3-3-3-3-3-3-3-3-3-|
-------------------------3--|----------------------------------|


  S S S S S S S S S S S S S S S S    S S S S S S S S S S S S S S S S  
----------------------------------|----------------------------------|
----------------------------------|----------------------------------|
--3-3-3-3-3-3-3-3-3-3-3-3-3-3-3-3-|--3-3-3-3-3-3-3-3-3-3-3-3-3-3-3-3-|
----------------------------------|----------------------------------|


  E.  E.  Q    E  E  E     E  E  S S S E  S E  E  E   
--5---4---5----4--5--7--|-----2--2-0------0----------|
---------------------0--|------------0-2----0--1--2--|
--3---2---3----2--3-----|--0-------------------------|
------------------------|----------------------------|


  E  E  S S S E  S E  E  E     E  E  S S S E  S E  E  E   
-----2--2-0------0----------|-----2--2-0------0----------|
------------0-2----0--1-----|------------0-2----0--1--2--|
--0-------------------------|--0-------------------------|
-------------------------3--|----------------------------|


  E  E  S S S E  S E  E  E     S S S S S S S S S S S S S S S S  
-----2--2-0------0----------|----------------------------------|
------------0-2----0--1-----|----------------------------------|
--0-------------------------|--3-3-3-3-3-3-3-3-3-3-3-3-3-3-3-3-|
-------------------------3--|----------------------------------|


  S S S S S S S S S S S S S S S S    S S S S S S S S S S S S S S S S  
----------------------------------|----------------------------------|
----------------------------------|----------------------------------|
--3-3-3-3-3-3-3-3-3-3-3-3-3-3-3-3-|--3-3-3-3-3-3-3-3-3-3-3-3-3-3-3-3-|
----------------------------------|----------------------------------|


  E.  E.  Q    E  E  E     E  E  S S S E  S E  E  E   
--5---4---5----4--5--7--|-----2--2-0------0----------|
---------------------0--|------------0-2----0--1--2--|
--3---2---3----2--3-----|--0-------------------------|
------------------------|----------------------------|


  E  E  S S S E  S E  E  E     E  E  S S S E  S E  E  E   
-----2--2-0------0----------|-----2--2-0------0----------|
------------0-2----0--1-----|------------0-2----0--1--2--|
--0-------------------------|--0-------------------------|
-------------------------3--|----------------------------|


  E  E  S S S E  S E  E  E     S S S S S S S S S S S S S S S S  
-----2--2-0------0----------|----------------------------------|
------------0-2----0--1-----|--0-0-0-0-0-0-0-0-0-0-0-0-0-0-0-0-|
--0-------------------------|----------------------------------|
-------------------------3--|----------------------------------|


  S S S S S S S S S S S S S S S S    S S S S S S S S S S S S S S S S  
----------------------------------|----------------------------------|
--0-0-0-0-0-0-0-0-0-0-0-0-0-0-0-0-|--2-2-2-2-2-2-2-2-2-2-2-2-2-2-2-2-|
----------------------------------|----------------------------------|
----------------------------------|----------------------------------|


  S S S S S S S S S S S S S S S S    S S S S S S S S S S S S S S S S  
----------------------------------|----------------------------------|
--2-2-2-2-2-2-2-2-2-2-2-2-2-2-2-2-|--0-0-0-0-0-0-0-0-0-0-0-0-0-0-0-0-|
----------------------------------|----------------------------------|
----------------------------------|----------------------------------|


  S S S S S S S S S S S S S S S S    S S S S S S S S S S S S S S S S  
----------------------------------|----------------------------------|
--0-0-0-0-0-0-0-0-0-0-0-0-0-0-0-0-|--2-2-2-2-2-2-2-2-2-2-2-2-2-2-2-2-|
----------------------------------|----------------------------------|
----------------------------------|----------------------------------|


  S S S S S S S S S S S S S S S S    S S S S S S S S S S S S S S S S  
----------------------------------|----------------------------------|
--2-2-2-2-2-2-2-2-2-2-2-2-2-2-2-2-|--0-0-0-0-0-0-0-0-0-0-0-0-0-0-0-0-|
----------------------------------|----------------------------------|
----------------------------------|----------------------------------|


  S S S S S S S S S S S S S S S S    S S S S S S S S S S S S S S S S  
----------------------------------|----------------------------------|
----------------------------------|--0-0-0-0-0-0-0-0-0-0-0-0-0-0-0-0-|
--0-0-0-0-0-0-0-0-0-0-0-0-0-0-0-0-|----------------------------------|
----------------------------------|----------------------------------|


  S S S S S S S S S S S S S S S S    S S S S S S S S S S S S S S S S  
----------------------------------|----------------------------------|
----------------------------------|--0-0-0-0-0-0-0-0-0-0-0-0-0-0-0-0-|
--3-3-3-3-3-3-3-3-----------------|----------------------------------|
------------------3-3-3-3-3-3-3-3-|----------------------------------|


  S S S S S S S S S S S S S S S S    S S S S S S S S S S S S S S S S  
----------------------------------|----------------------------------|
----------------------------------|----------------------------------|
--0-0-0-0-0-0-0-0-0-0-0-0-0-0-0-0-|--2-2-2-2-2-2-2-2-2-2-2-2-2-2-2-2-|
----------------------------------|----------------------------------|


  S S S S S S S S S S S S S S S S    S S S S S S S S S S S S S S S S  
----------------------------------|----------------------------------|
--2-2-2-2-2-2-2-2-2-2-2-2-2-2-2-2-|----------------------------------|
----------------------------------|--0-0-0-0-0-0-0-0-0-0-0-0-0-0-0-0-|
----------------------------------|----------------------------------|


  S S S S S S S S S S S S S S S S    S S S S S S S S S S S S S S S S  
----------------------------------|----------------------------------|
----------------------------------|----------------------------------|
--0-0-0-0-0-0-0-0-0-0-0-0-0-0-0-0-|----------------------------------|
----------------------------------|--3-3-3-3-3-3-3-3-3-3-3-3-3-3-3-3-|


  S S S S S S S S S S S S S S S S    S S S S S S S S S S S S S S S S  
----------------------------------|----------------------------------|
----------------------------------|----------------------------------|
----------------------------------|--0-0-0-0-0-0-0-0-0-0-0-0-0-0-0-0-|
--3-3-3-3-3-3-3-3-3-3-3-3-3-3-3-3-|----------------------------------|


  S S S S S S S S S S S S S S S S    S S S S S S S S S S S S S S S S  
----------------------------------|----------------------------------|
----------------------------------|----------------------------------|
--0-0-0-0-0-0-0-0-0-0-0-0-0-0-0-0-|----------------------------------|
----------------------------------|--3-3-3-3-3-3-3-3-3-3-3-3-3-3-3-3-|


  S S S S S S S S S S S S S S S S    S S S S S S S S S S S S S S S S  
----------------------------------|----------------------------------|
----------------------------------|----------------------------------|
----------------------------------|----------------------------------|
--3-3-3-3-3-3-3-3-3-3-3-3-3-3-3-3-|--1-1-1-1-1-1-1-1-1-1-1-1-1-1-1-1-|


  S S S S S S S S S S S S S S S S    S S S S S S S S S S S S S S S S  
----------------------------------|----------------------------------|
----------------------------------|----------------------------------|
----------------------------------|--1-1-1-1-1-1-1-1-1-1-1-1-1-1-1-1-|
--3-3-3-3-3-3-3-3-3-3-3-3-3-3-3-3-|----------------------------------|


  S S S S S S S S S S S S S S S S    S S S S S S S S S S S S S S S S  
----------------------------------|----------------------------------|
----------------------------------|----------------------------------|
--3-3-3-3-3-3-3-3-3-3-3-3-3-3-3-3-|----------------------------------|
----------------------------------|--1-1-1-1-1-1-1-1-1-1-1-1-1-1-1-1-|


  S S S S S S S S S S S S S S S S    S S S S S S S S S S S S S S S S  
----------------------------------|----------------------------------|
----------------------------------|----------------------------------|
----------------------------------|--1-1-1-1-1-1-1-1-1-1-1-1-1-1-1-1-|
--3-3-3-3-3-3-3-3-3-3-3-3-3-3-3-3-|----------------------------------|


  S S S S S S S S S S S S S S S S   
----------------------------------||
--0-0-0-0-0-0-0-0-0-0-0-0-0-0-0-0-||
----------------------------------||
----------------------------------||
Login or Register to remove this ad.