Waterfall (Undertale) Guitar Tab

Submitted: Nov 21, 2015 by wolfrain64 (Last updated: Mar 19, 2017)

4.25
Average: 4.3 (4 votes)
Download | Listen
Game: Undertale
Composer(s): Toby Fox
Style: 2 or more instruments, Transcription

AutoScroll: Slow | Medium | Fast
song: waterfall
game: Undertale
Composer: Toby Fox
tabber: Wolfrain64
                                                                  
intro 								  



             E  E  E  E  E  E  E  E     E  E  E  E  E  E  E  E                 
E||-------|--5-----2-----------------|--5-----2--3--5--3--2-----|
B||-------|-----0-----3--5--0-----0--|-----0-----------------3--|
G||-------|--------------------0-----|--------------------------| x4
D||-------|--------------------------|--------------------------|
A||-------|--------------------------|--------------------------|
E||-------|--------------------------|--------------------------|


main
                          Q    Q    Q    Q          
|----------------------|-------------------------|
|------------8---------|--7--8--10--7--8------7--|
|-------9---------9----|-------------------------|
|--9-------------------|--7--9--10--7--9---------|
|----------------------|-------------------------|
|----------------------|-------------------------|


  E  S S Q    E  E   E   E     Q    Q    Q    Q       Q    Q    E  E  E  E   
----------------------------|----------------------|------------------------|
--L--5--------7--8--10--12--|--5----7---------5----|------------------------|
-------7-5------------------|------------4---------|--7----5----7--5--4-----|
--------------7--9--10--13--|-----------------5----|---------------------7--|
----------------------------|----------------------|--9----7----9--7--5-----|
----------------------------|----------------------|---------------------7--|


  E  E  Q.     E  E  E     Q    Q    Q    Q       E  E   E  E  Q.     E   
------------------------|----------------------|-------------------------|
-----5------------------|------------8---------|--7--8--10--7--8------7--|
---------------------5--|-------9---------9----|-------------------------|
--L--5--5------4--5--L--|--9-------------------|--7--9--10--7--9---------|
------------------------|----------------------|-------------------------|
--L-----5---------5--L--|----------------------|-------------------------|


  E  S S Q    E  E   E   E     Q    Q    Q    Q       Q    Q    E  E  E  E   
----------------------------|----------------------|------------------------|
--L--5--------7--8--10--12--|--5----7---------5----|------------------------|
-------7-5------------------|------------4---------|--7----5----7--5--4-----|
--------------7--9--10--13--|-----------------5----|---------------------7--|
----------------------------|----------------------|--9----7----9--7--5-----|
----------------------------|----------------------|---------------------7--|


strings starts here 

  E  E  Q.     E  E  E                                         
------------------------|
-----5------------8--7--|
-----0------------------| 
--L-----5------4--5--4--|
------------------------|
--L-----5---------------|

   S. T E  Q    E  E  S. T E     E  E  E  E  Q.     E   
|--5-------5-------5----------|---------------------5--|
|---------------------7-------|--7--8--7--8--7---------|
|--5-------5-------5----------|---------------------5--| 
|---------------------7-------|--7--9--7--9--7---------|
|-----------------------------|------------------------|
|-----------------------------|------------------------|


  Q    Q.     E  E  E     
--L--------------------|
-------5------7--8--7--|
--L--------------------| x4
-------5------7--9--7--| 
-----------------------|
-----------------------|


end bridge

  Q    Q.     S S E  E     H.           E  E        
--L---------------------|--5------------L-----|
-------5------3-5-6--8--|---------------------|
--L---------------------|--5------------L-----|
-------5------3-5-7--9--|---------------------|
------------------------|---------------------|
------------------------|---------------------|

   E  E  Q    Q    Q       E  E  E  E  E  E  E  E     E  E  E  E  E  E  E  E   
|-----------------------|-----0--2-----------------|--5-----2--3--5--3--2-----||
|--------5--------------|--0--------3--5--0-----0--|-----0-----------------3--||
|--5--7-------7----5----|--------------------0-----|--------------------------|| end
|-----------------------|--------------------------|--------------------------||
|-----------------------|--------------------------|--------------------------||
|-----------------------|--------------------------|--------------------------||


Duration Legend
---------------
W - whole
H - half
Q - quarter
E - 8th
S - 16th
. - note dotted
|-n-|  - n-tuplets
Login or Register to remove this ad.