Ads

Uwa!! So Temperate (Undertale) Guitar Tab

Submitted: Aug 23, 2016 by johnbie

5
Average: 5 (1 vote)
Download | Listen
Game: Undertale
Composer(s): Toby Fox
Style: Arrangement, Fingerstyle, Natural harmonics

AutoScroll: Slow | Medium | Fast
Uwa!! So Temperate                                       
Song By Toby Fox
Arranged By John Lee


       NH      NH                                               
       E   S   S E  S S E  S S Q       E  S S Q    E  S S Q     
E||-------12-----7--5-7-2--0-2------|--0----0-5----0----0-8----|
B||---<7>-----<7>--------------0----|-----3-----------3--------|
G||---------------------------------|--------------------------|
D||--------------4-------------4----|---------2----------------|
A||------------------------2--------|-----0-----------0--------|
E||----3---7------------3-----------|--1-----------1------8----|


    NH      NH                                                   NH      NH                    
    E   S   S E  S S E  S S Q       E  S S Q    E  S S Q         E   S   S E  S S E  S S Q     
-------12-----7--5-7-2--0-2------|--0----0-5----0----0-8----|-------12-----7--5-7-2--0-2------|
---<7>-----<7>--------------0----|-----3-----------3--------|---<7>-----<7>--------------0----|
---------------------------------|---------2----------------|---------------------------------|
--------------4-------------4----|-----0-----------0--------|--------------4-------------4----|
------------------------2--------|--1-----------1------8----|------------------------2--------|
----3---7------------3-----------|--------------------------|----3---7------------3-----------|


                               NH      NH                                               
  E  S S Q    E  S S Q         E   S   S E  S S E  S S Q       E  S S Q    E  S S Q     
--0----0-5----0----0-8----|-------12-----7--5-7-2--0-2------|--0----0-5----0----0-8----|
-----3-----------3--------|---<7>-----<7>--------------0----|-----3-----------3--------|
--------------------------|---------------------------------|---------2----------------|
---------2----------------|--------------4-------------4----|-----0-----------0--------|
-----0-----------0--------|------------------------2--------|--1-----------1------8----|
--1-----------1------8----|----3---7------------3-----------|--------------------------|


  E  E  Q    E  E  Q       E  Q    E  Q    Q       E  E  Q    E  E  Q     
------------------------|-----------------------|------------------------|
------------------------|-----------------------|------------------------|
------------------------|-----------------------|------------------------|
--------4----------4----|-----------------------|--------4----------4----|
-----2----------2-------|-----0-------0----3----|-----2----------2-------|
--3----------3----------|--1-------1------------|--3----------3----------|


                             NH      NH                                                 
  E  E  Q    E  E  Q         E   S   S E  S S S S S S Q       E  S S Q    S S S S Q     
------------------------|-------12-----7--5-7-2---0-2------|--0----0-5----0-----0-8----|
------------------------|---<7>-----<7>---------------0----|-----3------------3--------|
--------2---------------|----------------------------------|---------------------------|
-----0----------0--3----|--------------4--------------4----|---------2-----------------|
--1----------1----------|---------------------------2------|-----0--------------0------|
------------------------|----3---7--------------3----------|--1-------------1-----8----|


    NH      NH                                                 
    E   S   S E  S S S S S S Q       E  S S Q    S S S S Q     
-------12-----7--5-7-2---0-2------|--0----0-5----0-----0-8----|
---<7>-----<7>---------------0----|-----3------------3--------|
----------------------------------|---------2-----------------|
--------------4--------------4----|-----0--------------0------|
---------------------------2------|--1-------------1-----8----|
----3---7--------------3----------|---------------------------|


    NH      NH                                                 
    E   S   S E  S S S S S S Q       E  S S Q    S S S S Q     
-------12-----7--5-7-2---0-2------|--0----0-5----0-----0-8----|
---<7>-----<7>---------------0----|-----3------------3--------|
----------------------------------|---------------------------|
--------------4--------------4----|---------2-----------------|
---------------------------2------|-----0--------------0------|
----3---7--------------3----------|--1-------------1-----8----|


    NH      NH                                                          
    E   S   S E  S S S S S S Q       E  S S Q    S S S S Q              
-------12-----7--5-7-2---0-2------|--0----0-5----0-----0-8----|-------||
---<7>-----<7>---------------0----|-----3------------3--------|-------||
----------------------------------|---------2-----------------|-------||
--------------4--------------4----|-----0--------------0------|-------||
---------------------------2------|--1-------------1-----8----|-------||
----3---7--------------3----------|---------------------------|-------||




Duration Legend
---------------
W - whole
H - half
Q - quarter
E - 8th
S - 16th
. - note dotted


Tablature Legend
----------------
L - tied note
x - dead note
g - grace note
(n) - ghost note
NH - natural harmonic
AH - artificial harmonic
Login or Register to remove this ad.