Tem Shop (Undertale) Guitar Tab

Submitted: Sep 04, 2016 by johnbie

3
Average: 3 (2 votes)
Download | Listen
Game: Undertale
Composer(s): Toby Fox
Style: Arrangement, Fingerstyle

AutoScroll: Slow | Medium | Fast
Tem Shop                                     
Song By Toby Fox
Arranged By John Lee
Dropped D Tuning
Capo 2



      E  E   E  E  E  E  E  E     E  E  E  E  E  E  E  E   
E||---------10--------7--------|--------5-----------0--3--|
B||----------------------------|--8--------8-----3--------|
G||*---------------------------|--------------------------|
D||*---------------------------|--------------------2-----|
A||----------7-----------7-----|--------7-----------------|
D||---5------------0-----------|--5-----------0-----------|


  E  E  E  E  E  E  E  E     E  E  E  E  E  E  E  E   
--------0--------3--------|--2-----3--5--L-----------|
--------------------------|--------0-----------0-----|
--------2-----------2-----|--0-----------------------|
--3-----------------------|--------------0-----------|
--------------3-----------|--------------------------|
--------------------------|--------------------------|


  E  E   E  E  E  E  E  E     E  E  E  E  E  E  E  E   
--------10--------7--------|--------5-----------------|
---------------------------|--8--------8-----------8--|
---------------------------|-----------------7--9-----|
---------------------------|--------------------------|
---------7-----------7-----|--------7-----------7-----|
--5------------0-----------|--5-----------0-----------|


  E  E  E  E  E  E  E  E     Q    Q    Q    E  E     
--8--7--5-----5--3--0-----|--0----3----3-----------||
--------------------0-----|------------0-----------||
--------------------------|-------0---------------*||
--------7-----5-----------|--3--------------------*||
--8-----------------------|-----------------3------||
--------------------------|------------------------||


   E  E  E  E  E  E  E  E     E  E  E  E  E  E  E  E   
---------0--------0--------|--0-----3--2-----0-----0--|
---------------------------|--------------------3-----|
*--------2-----------2-----|--------2-----------2-----|
*--3-----------------------|--3-----------------------|
---------------3-----------|--------------3-----------|
---------------------------|--------------------------|


  E  E  E  E  E  E  E  E     E  E  E  E  E  E  E  E   
--------------------------|--------------------------|
--------0--------0--------|--------0--1-----0--------|
--------------------------|--2-----------------2-----|
--------2-----------2-----|--------2-----------2-----|
--------------------------|--------------------------|
--5-----------0-----------|--5-----------0-----------|


  E  E  E  E  E  E  E  E     E  E  E  E  E  E  E  E   
--------0--------0--------|--0-----3--2-----0-----0--|
--------------------------|--------------------3-----|
--------2-----------2-----|--------2-----------2-----|
--3-----------------------|--3-----------------------|
--------------3-----------|--------------3-----------|
--------------------------|--------------------------|


  E  E  E  E  E  E  E  E     E  E  E  E  E  E  E  E     
--------2-----------------|--2-----5--3--------2------||
--------0--------3--0-----|--------0-----------0------||
--0-----------------------|--0-----------------------*||
--------------0-----------|--------------0-----------*||
--------------------------|---------------------------||
--------------------------|---------------------------||




Duration Legend
---------------
W - whole
H - half
Q - quarter
E - 8th
S - 16th
. - note dotted
|-n-|  - n-tuplets
Login or Register to remove this ad.