Spiderdance (Undertale) Ukulele Tab

Submitted: Jan 13, 2018 by ark626

3
Average: 3 (3 votes)
Download | Listen
Game: Undertale
Composer(s): Toby Fox
Style: Transcription

AutoScroll: Slow | Medium | Fast
                                  Spiderdance
                                   Undertale
                             Composed  by Toby Fox
                        Tabbed by the Ark626 08.01.2018

4/4

  |               |               |               |                 
|-------------------------------------------------1----------------|
|---------------------------------1---------------1----------------|
|-5-------0-------0-------0---------------0---------------0--------|
|-----------------3---------------1--------------------------------|
 
  |               |               |               |                 
|---------2-------1-------2-------1--------------------------------|
|---------------------------------0---------------0-------1--------|
|-1---------------1---------------0-------0---------------0--------|
|-----------------------------------------1-------0----------------|
 
  |               |               |               |                 
|-----------------1---------------1---------------1----------------|
|-1-------------------------------------------------------1--------|
|---------0---------------0---------------0-------3-------0--------|
|-------------------------1-------0---------------0----------------|
 
  |               |               |               |                 
|-----------------1---------------1---------------1---1------------|
|---------1---------------1----------------------------------------|
|---------0-------3-------0---------------3-------0-------1--------|
|-1---------------1---------------1-----------------------1--------|
 
  |               |               |               |                 
|------------------------------------------------------------------|
|-1-------4-------3-------4-------3---------------4----------------|
|-1---------------1---------------1---------------1----------------|
|-----------------------------------------3---------------3--------|
 
  |               |               |               |                 
|------------------------------------------------------------------|
|-4----------------------------------------------------------------|
|-1-------0-------1-------0-------1-------1-------0-------1--------|
|-----------------3---------------3--------------------------------|
 
  |               |               |               |                 
|-----------------1------------------------------------------------|
|---------------------------------1--------------------------------|
|-0-----------------------------------------------0----------------|
|------------------------------------------------------------------|
 
  |               |               |               |                 
|------------------------------------------------------------------|
|-0-------------------------------------------------------0--------|
|-0---------------1---------------0-------0-------2----------------|
|------------------------------------------------------------------|
 
  |               |               |               |                 
|---------3-------1-------3---------------3-------1-------3--------|
|-1-------------------------------1---------------1----------------|
|-----------------0------------------------------------------------|
|---------------------------------1--------------------------------|
 
  |               |               |               |                 
|---------2-------1-------2-------1-------3---------------3--------|
|---------------------------------0---------------0-------1--------|
|-1---------------1-------------------------------0----------------|
|-----------------------------------------1-------0----------------|
 
  |               |               |               |                 
|---------3-------1-------3-------1-------3-------1-------3--------|
|-1-----------------------4-------------------------------1--------|
|---------0---------------5---------------0-------3----------------|
|---------------------------------0---------------0----------------|
 
  |               |               |               |                 
|---------3-------1-------3-------1-------4-------3---1---4--------|
|---------1---------------1----------------------------------------|
|-----------------3-----------------------3-------0----------------|
|-1---------------1---------------1---------------3-------1--------|
 
  |               |               |               |                 
|-----------------------------------------1---------------1--------|
|-1----------------------------------------------------------------|
|-1-------------------------------1--------------------------------|
|---------1-------0-------1-------0---------------1----------------|
 
  |               |               |               |                 
|---------3-------1-------3-------1-------4-------3-------4--------|
|------------------------------------------------------------------|
|-1-------------------------------1--------------------------------|
|-1----------------------------------------------------------------|
 
  |               |               |               |                 
|-----------------1------------------------------------------------|
|---------------------------------1--------------------------------|
|-0-----------------------------------------------0----------------|
|------------------------------------------------------------------|
 
  |               |               |               |                 
|------------------------------------------------------------------|
|-0-------------------------------------------------------0--------|
|-0---------------1---------------0-------0-------2----------------|
|------------------------------------------------------------------|
 
  |               |               |               |                 
|-------------------------------------------------1----------------|
|---------------------------------1---------------1----------------|
|-5-------0-------0-------0---------------0---------------0--------|
|-----------------3---------------1--------------------------------|
 
  |               |               |               |                 
|---------2-------1-------2-------1--------------------------------|
|---------------------------------0---------------0-------1--------|
|-1---------------1---------------0-------0---------------0--------|
|-----------------------------------------1-------0----------------|
 
  |               |               |               |                 
|-----------------1---------------1---------------1----------------|
|-1-------------------------------------------------------1--------|
|---------0---------------0---------------0-------3-------0--------|
|-------------------------1-------0---------------0----------------|
 
  |               |               |               |                 
|-----------------1---------------1---------------1---1------------|
|---------1---------------1----------------------------------------|
|---------0-------3-------0---------------3-------0-------1--------|
|-1---------------1---------------1-----------------------1--------|
 
  |               |               |               |                 
|------------------------------------------------------------------|
|-1-------4-------3-------4-------3---------------4----------------|
|-1---------------1---------------1---------------1----------------|
|-----------------------------------------3---------------3--------|
 
  |               |               |               |                 
|------------------------------------------------------------------|
|-4----------------------------------------------------------------|
|-1-------0-------1-------0-------1-------1-------0-------1--------|
|-----------------3---------------3--------------------------------|
 
  |               |               |               |                 
|-----------------1------------------------------------------------|
|---------------------------------1--------------------------------|
|-0-----------------------------------------------0----------------|
|------------------------------------------------------------------|
 
  |               |               |               |                 
|------------------------------------------------------------------|
|-0-------------------------------------------------------0--------|
|-0---------------1---------------0-------0-------2----------------|
|------------------------------------------------------------------|
 
  |               |               |               |                 
|---------3-------1-------3---------------3-------1-------3--------|
|-1-------------------------------1---------------1----------------|
|-----------------0------------------------------------------------|
|---------------------------------1--------------------------------|
 
  |               |               |               |                 
|---------2-------1-------2-------1-------3---------------3--------|
|---------------------------------0---------------0-------1--------|
|-1---------------1-------------------------------0----------------|
|-----------------------------------------1-------0----------------|
 
  |               |               |               |                 
|---------3-------1-------3-------1-------3-------1-------3--------|
|-1-----------------------4-------------------------------1--------|
|---------0---------------5---------------0-------3----------------|
|---------------------------------0---------------0----------------|
 
  |               |               |               |                 
|---------3-------1-------3-------1-------4-------3---1---4--------|
|---------1---------------1----------------------------------------|
|-----------------3-----------------------3-------0----------------|
|-1---------------1---------------1---------------3-------1--------|
 
  |               |               |               |                 
|-----------------------------------------1---------------1--------|
|-1----------------------------------------------------------------|
|-1-------------------------------1--------------------------------|
|---------1-------0-------1-------0---------------1----------------|
 
  |               |               |               |                 
|---------3-------1-------3-------1-------4-------3-------4--------|
|------------------------------------------------------------------|
|-1-------------------------------1--------------------------------|
|-1----------------------------------------------------------------|
 
  |               |               |               |                 
|---------------------------------8--------------------------------|
|-----------------6------------------------------------------------|
|-0-------------------------------5---------------0----------------|
|-5-----------------------------------------------5----------------|
 
  |               |               |               |                 
|-7---------------4-----------------------4---------------4--------|
|------------------------------------------------------------------|
|-4---------------1---------------0-------1-------0-------1--------|
|---------------------------------5---------------5----------------|
 
  |               |               |               |                 
|-3----------------------------------------------------------------|
|-1---------------1---------------1---------------1----------------|
|-0-------0---------------0---------------0-------0-------0--------|
|-----------------1------------------------------------------------|
 
  |               |               |               |                 
|-1-------------------------------1---------------1----------------|
|---------1-------1-------1---------------1---------------1--------|
|------------------------------------------------------------------|
|-1---------------0-------0-----------------------0----------------|
 
  |               |               |               |                 
|------------------------------------------------------------------|
|---------1-------1-------1---------------1---------------1--------|
|-1-------------------------------1---------------1----------------|
|-1---------------0-------0-----------------------0----------------|
 
  |               |               |               |                 
|-----------------------------------------4-------3-------4--------|
|---------0-------1-------0---------------0---------------0--------|
|-0-------------------------------0-------1-------0-------1--------|
|-1---------------0-------0-----------------------0----------------|
 
  |               |               |               |                 
|-3----------------------------------------------------------------|
|-1---------------1---------------1---------------1----------------|
|-0-------0---------------0---------------0-------0-------0--------|
|-----------------1------------------------------------------------|
 
  |               |               |               |                 
|-1---------------1---------------1---------------1----------------|
|---------1---------------1---------------1---------------1--------|
|------------------------------------------------------------------|
|-1---------------0-------0-----------------------0----------------|
 
  |               |               |               |                 
|-----------------1------------------------------------------------|
|---------1---------------1---------------1---------------1--------|
|-1-------------------------------1---------------1----------------|
|-1---------------0-------0-----------------------0----------------|
 
  |               |               |               |                 
|-----------------1-------3---------------4-------3-------4--------|
|---------0---------------0---------------0---------------0--------|
|-0-----------------------0-------0-------1-------0-------1--------|
|-1---------------0-------------------------------0----------------|
 
  |               |               |               |                 
|-3----------------------------------------------------------------|
|-1---------------1---------------1---------------1----------------|
|-0-------0---------------0---------------0-------0-------0--------|
|-----------------1------------------------------------------------|
 
  |               |               |               |                 
|-1-------------------------------1---------------1----------------|
|---------1-------1-------1---------------1---------------1--------|
|------------------------------------------------------------------|
|-1---------------0-------0-----------------------0----------------|
 
  |               |               |               |                 
|------------------------------------------------------------------|
|---------1-------1-------1---------------1---------------1--------|
|-1-------------------------------1---------------1----------------|
|-1---------------0-------0-----------------------0----------------|
 
  |               |               |               |                 
|-----------------------------------------4-------3-------4--------|
|---------0-------1-------0---------------0---------------0--------|
|-0-------------------------------0-------1-------0-------1--------|
|-1---------------0-------0-----------------------0----------------|
 
  |               |               |               |                 
|-----------------8---------------1--------------------------------|
|-1-------------------------------1---------------1----------------|
|-0-------0-------5-------0---------------0---------------0--------|
|-5-----------------------------------------------1----------------|
 
  |               |               |               |                 
|-1-----------------------1-------------------------------1--------|
|-2---------------2---------------2---------------2----------------|
|---------1---------------1---------------1---------------1--------|
|---------1---------------------------------------1----------------|
 
  |               |               |               |                 
|-2-------1--------------------------------------------------------|
|---------1---------------1-------0-------0---------------0--------|
|-1---------------1-------------------------------0----------------|
|-----------------1------------------------------------------------|
 
  |               |               |               |                 
|------------------------------------------------------------------|
|---------1-------0-------0-------1--------------------------------|
|-1----------------------------------------------------------------|
|------------------------------------------------------------------|
 
  |               |               |               |                 
|-3----------------------------------------------------------------|
|-----------------4-----------------------4------------------------|
|-5-------0-------5-------0-------5-------0-------5-------0--------|
|------------------------------------------------------------------|
 
  |               |               |               |                 
|-1-----------------------1-------1---------------1----------------|
|---------1-------1-------1---------------1---------------1--------|
|---------------------------------1---------------1----------------|
|-1---------------0-------------------------------0-------1--------|
 
  |               |               |               |                 
|------------------------------------------------------------------|
|---------1---------------1---------------1-------1-------1--------|
|-1-----------------------1-------1-------1---------------1--------|
|---------1-------1---------------0---------------1----------------|
 
  |               |               |               |                 
|------------------------------------------------------------------|
|-0-------0-------1-------0---------------1-------0-------0--------|
|-0-------0---------------0-------0-------4------------------------|
|-----------------0---------------0---------------0----------------|
 
  |               |               |               |                 
|---------------------------------------------------------1--------|
|-1---------------1---------------1---------------1----------------|
|---------0---------------0---------------0---------------0--------|
|-------------------------0-------1-------0-------1----------------|
 
  |               |               |               |                 
|-3-------1---------------1-------1---------------1----------------|
|---------1-------3-------1---------------1-------1-------1--------|
|---------------------------------------------------------3--------|
|-3---------------1-------0-------1-------0-------0----------------|
 
  |               |               |               |                 
|-----------------6---------------4-------6-------3-------4--------|
|-1---------------4-------1-------------------------------1--------|
|-1-------5---------------1-------1-------5-------1----------------|
|-------------------------------------------------1----------------|
 
  |               |               |               |                 
|-1-------3---------------1-------3--------------------------------|
|---------0-------3-------0---------------0---------------0--------|
|-0-----------------------0-------0---------------0----------------|
|-----------------1-------------------------------0----------------|
 
  |               |               |               |                 
|-3----------------------------------------------------------------|
|-1---------------1---------------1---------------1----------------|
|-0-------0---------------0---------------0-------0-------0--------|
|-----------------1------------------------------------------------|
 
  |               |               |               |                 
|-1-------------------------------1---------------1----------------|
|---------1-------1-------1---------------1---------------1--------|
|------------------------------------------------------------------|
|-1---------------0-------0-----------------------0----------------|
 
  |               |               |               |                 
|------------------------------------------------------------------|
|---------1-------1-------1---------------1---------------1--------|
|-1-------------------------------1---------------1----------------|
|-1---------------0-------0-----------------------0----------------|
 
  |               |               |               |                 
|-----------------------------------------4-------3-------4--------|
|---------0-------1-------0---------------0---------------0--------|
|-0-------------------------------0-------1-------0-------1--------|
|-1---------------0-------0-----------------------0----------------|
 
  |               |               |               |                 
|-----------------8---------------1--------------------------------|
|-1-------------------------------1---------------1----------------|
|-0-------0-------5-------0---------------0---------------0--------|
|-5-----------------------------------------------1----------------|
 
  |               |               |               |                 
|-1-----------------------1-------------------------------1--------|
|-2---------------2---------------2---------------2----------------|
|---------1---------------1---------------1---------------1--------|
|---------1---------------------------------------1----------------|
 
  |               |               |               |                 
|-2-------1--------------------------------------------------------|
|---------1---------------1-------0-------0---------------0--------|
|-1---------------1-------------------------------0----------------|
|-----------------1------------------------------------------------|
 
  |               |               |               |                 
|------------------------------------------------------------------|
|---------1-------0-------0-------1--------------------------------|
|-1----------------------------------------------------------------|
|------------------------------------------------------------------|
 
  |               |               |               |                 
|-----------------13------11--------------13------11---------------|
|------------------------------------------------------------------|
|-1---------------10--------------1---------------10---------------|
|---------1---------------1---------------1---------------1--------|
 
  |               |               |               |                 
|-----------------13------11--------------13------11---------------|
|------------------------------------------------------------------|
|-1---------------10--------------1---------------10---------------|
|---------1---------------1---------------1---------------1--------|
 
  |               |               |               |                 
|-11--13--11-------------------------------------------------------|
|-1-------------------------------1---------------12---------------|
|---------12------13------12--------------12------13------12-------|
|-------------10------------------10----------------------10-------|
 
  |               |               |               |                 
|-8----------------------------------------------------------------|
|------------------------------------------------------------------|
|-5-------------------------------5--------------------------------|
|---------5-------6-------5---------------5-------6-------5--------|
 
  |               |               |               |                 
|-----------------13------11--------------13------11---------------|
|------------------------------------------------------------------|
|-1---------------10--------------1---------------10---------------|
|---------1---------------1---------------1---------------1--------|
 
  |               |               |               |                 
|-----------------13------11--------------13------11---------------|
|------------------------------------------------------------------|
|-1---------------10--------------1---------------10---------------|
|---------1---------------1---------------1---------------1--------|
 
  |               |               |               |                 
|-11--------------13--------------14------13--------------11-------|
|-1-------------------------------1--------------------------------|
|---------12------13------12--------------12------13------12-------|
|------------------------------------------------------------------|
 
  |               |               |               |                 
|-8----------------------------------------------------------------|
|------------------------------------------------------------------|
|-5-------------------------------5--------------------------------|
|---------5-------6-------5---------------5-------6-------5--------|
 
  |               |               |               |                 
|-----------------13------11--------------13------11---------------|
|-1----------------------------------------------------------------|
|-1---------------10--------------1---------------10---------------|
|---------1---------------1---------------1---------------1--------|
 
  |               |               |               |                 
|-----------------13------11--------------13------1----------------|
|---------------------------------0--------------------------------|
|-1---------------10--------------1-------3-------2-------1--------|
|---------1---------------1---------------1-------13------1--------|
 
  |               |               |               |                 
|-11--13--11-------------------------------------------------------|
|-1-------------------------------1---------------12---------------|
|-0-------12------13------12--------------12------13------12-------|
|-------------10------------------10----------------------10-------|
 
  |               |               |               |                 
|------------------------------------------------------------------|
|---------------------------------1-----------------------0--------|
|-5-------------------------------0-------1-------3----------------|
|---------5-------6-------5---------------5-------6-------5--------|
 
  |               |               |               |                 
|-----------------13------11--------------13------11---------------|
|-1----------------------------------------------------------------|
|-1---------------10--------------1---------------10---------------|
|---------1---------------1---------------1---------------1--------|
 
  |               |               |               |                 
|-----------------13------11--------------13------11---------------|
|------------------------------------------------------------------|
|-1---------------10--------------1---------------10---------------|
|---------1---------------1-------1-------1---------------1--------|
 
  |               |               |               |                 
|-11--------------13--------------14------13--------------11-------|
|-1-------------------------------1--------------------------------|
|---------12------13------12--------------12------13------12-------|
|-0----------------------------------------------------------------|
 
  |               |               |               |                 
|-8----------------------------------------------------------------|
|-1----------------------------------------------------------------|
|-8-------------------------------5--------------------------------|
|---------5-------6-------5---------------5-------6-------5--------|
 
  |               |               |               |                 
|-----------------1-----------------------1-------1----------------|
|------------------------------------------------------------------|
|-1-----------------------1-------1---------------1----------------|
|---------1---------------1---------------1-------1-------1--------|
 
  |               |               |               |                 
|-----------------1-----------------------1-------1----------------|
|------------------------------------------------------------------|
|-1-----------------------1-------1---------------1----------------|
|---------1---------------1---------------1-------1-------1--------|
 
  |               |               |               |                 
|-----1------------------------------------------------------------|
|-1-----------1-------------------1---------------0-------1--------|
|---------0-------1-------0---------------0-------1-------0--------|
|-1-------1--------------------------------------------------------|
 
  |               |               |               |                 
|------------------------------------------------------------------|
|-1-------------------------------1-------1-------1-------1--------|
|---------0-------1-------0---------------0-------1-------0--------|
|-------------------------------------1-------1-------1-------1----|
 
  |               |               |               |                 
|-----------------1-----------------------1-------1----------------|
|------------------------------------------------------------------|
|-1-----------------------1-------1---------------1----------------|
|---------1---------------1---------------1-------1-------1--------|
 
  |               |               |               |                 
|-----------------1-----------------------1-------1----------------|
|------------------------------------------------------------------|
|-1-----------------------1-------1---------------1----------------|
|---------1---------------1---------------1-------1-------1--------|
 
  |               |               |               |                 
|-----------------1---------------2-------1------------------------|
|-1-------------------------------1--------------------------------|
|---------0-------1-------0---------------0-------1-------0--------|
|-1-------------------------------------------------------1--------|
 
  |               |               |               |                 
|------------------------------------------------------------------|
|-1-------------------------------1--------------------------------|
|---------0-------1-------0---------------0-------1-------0--------|
|------------------------------------------------------------------|
 
  |               |               |               |                 
|-----------------1-----------------------1-------1----------------|
|------------------------------------------------------------------|
|-1-----------------------1-------1---------------1----------------|
|---------1---------------1---------------1-------1-------1--------|
 
  |               |               |               |                 
|-----------------1-----------------------1-------1----------------|
|------------------------------------------------------------------|
|-1-----------------------1-------1---------------1----------------|
|---------1---------------1---------------1-------1-------1--------|
 
  |               |               |               |                 
|-----1------------------------------------------------------------|
|-1-----------1-------------------1---------------0-------1--------|
|---------0-------1-------0---------------0-------1-------0--------|
|-1-------1--------------------------------------------------------|
 
  |               |               |               |                 
|------------------------------------------------------------------|
|-1-------------------------------1--------------------------------|
|---------0-------1-------0---------------0-------1-------0--------|
|------------------------------------------------------------------|
 
  |               |               |               |                 
|-----------------1-----------------------1-------1----------------|
|------------------------------------------------------------------|
|-1-----------------------1-------1---------------1----------------|
|---------1---------------1---------------1-------1-------1--------|
 
  |               |               |               |                 
|-----------------1-----------------------1-------1----------------|
|------------------------------------------------------------------|
|-1-----------------------1-------1---------------1----------------|
|---------1---------------1---------------1-------1-------1--------|
 
  |               |               |               |                 
|---------------------------------7-----------------------1--------|
|-----------------8-------0-------0-------0---------------0--------|
|-0-------4-------0-------0-------0-------0-------0----------------|
|-5---------------0-----------------------5-------0----------------|
 
  |               |               |               |                 
|-3----------------------------------------------------------------|
|---------0---------------0---1-----------0---------------0--------|
|-0-------------------------------0---------------0----------------|
|-----------------0---------------0---------------0----------------|
 
  |               |               |               |                 
|------------------------------------------------------------------|
|-1----------------------------------------------------------------|
|-0----------------------------------------------------------------|
|------------------------------------------------------------------|
 
  |               |               |               |                 
|------------------------------------------------------------------|
|------------------------------------------------------------------|
|------------------------------------------------------------------|
|------------------------------------------------------------------|
 
  |               |               |               |                 
|------------------------------------------------------------------|
|------------------------------------------------------------------|
|------------------------------------------------------------------|
|------------------------------------------------------------------|
 


Created with TablEdit http://www.tabledit.com/
Login or Register to remove this ad.