Ads

Sans (Undertale) Guitar Tab

Submitted: Feb 26, 2016 by johnbie (Last updated: Feb 26, 2016)

5
Average: 5 (6 votes)
Download | Listen
Game: Undertale
Composer(s): Toby Fox
Style: Arrangement, Fingerstyle

AutoScroll: Slow | Medium | Fast
Sans                                       
Song By Toby Fox
Arranged By John Lee
Capo 1



     Q    E  E     Q    E  E     E  E  E  E     E  E  E  E     Q    E  E   
E||-------1-----|--0----------|-----3--1-----|--------------|-------1-----|
B||-------------|-------------|-----------3--|--L-----1--3--|-------------|
G||----------0--|-------------|--0-----------|-----3--------|----------0--|
D||-------------|--0----3--4--|--------------|--0-----------|-------------|
A||-------------|-------------|--------------|--------1-----|--3-------3--|
E||--3-------3--|-------------|--3-----------|--------------|-------------|


  Q    E  E     E  E  E  E     E  E  Q       Q    E  E     Q    E  E   
--0----------|-----3--1-----|-------------|-------1-----|--0----------|
-------------|-----------2--|--L--1-------|-------------|-------------|
--0----------|--0-----------|--------3----|----------0--|-------------|
-------0--3--|--------------|--0-----3----|-------------|--0----3--4--|
-------------|--3--------3--|-------------|-------------|-------------|
--3----------|--------------|-------------|--3-------3--|-------------|


  E  E  E  E     E  E  E  E     Q    E  E     Q    E  E     E  E  E  E   
-----3--1-----|--------------|-------1-----|--0----------|-----3--1-----|
-----------3--|--L-----1--3--|-------------|-------------|-----------3--|
--0-----------|-----3--------|----------0--|--0----------|--0-----------|
--------------|--0-----------|-------------|-------0--3--|--------------|
--------------|--------1-----|--3-------3--|-------------|--3--------3--|
--3-----------|--------------|-------------|--3----------|--------------|


  E  E  E  E     Q    E  E     Q    E  E     E   E   E  E     E  E  S S E   
--------------|-------------|-------1--2--|-----10---------|---------------|
--1-----1--3--|-------4-----|--4----------|--3------10--3--|--3--1------1--|
-----3--------|----------3--|--3----------|----------------|--------0-3----|
--------0-----|--1-------1--|-------------|--0-------------|--------0------|
--3-----------|-------------|--1-------1--|----------------|--1------------|
--------------|-------------|-------------|----------------|---------------|


  Q    E  E     Q    E  E     E  E  E  E     E  E  E  E       Q    E  E   
-------------|-------------|-----5--2-----|-----2--2--2---||-------------|
-------1-----|--1----3--2--|--3--------3--|---------------||-------------|
----------0--|-------------|--------------|--2-----------*||-------0--0--|
--1-------1--|-------------|--0--------0--|--------4-----*||-------------|
-------------|--1----------|--------------|---------------||-------------|
-------------|-------------|--------------|---------------||--3----------|


  Q    E  E     Q    E  E     Q    E  E    
-------------|-------------|-------------||
-------------|-------------|-------------||
-------0--0--|-------0-----|-------0-----||
-------------|-------------|-------------||
-------------|-------------|-------------||
--3----------|--3----------|--3----------||




Duration Legend
---------------
W - whole
H - half
Q - quarter
E - 8th
S - 16th
Login or Register to remove this ad.

2 comments on Sans

Love this tab

5

Awesome song, awesome arrangement. I tried it out on the fretless 6 string bass the other day, give it a listen if ya want, still having trouble nailing the fretless notes.

https://soundcloud.com/dao-jarlen/untled

Great Job!

Sounds great on the bass. Some slowdown here and there, but seems like it can easily be fixed with a little more practice.

I'll be honest, you played the song better than me. See if you can play my other songs as well. The bass sounds good, and I won't mind hearing more of it.