sans. (Undertale) Bass Tab

Submitted: Nov 18, 2015 by Estolle

0
Download | Listen
Game: Undertale
Composer(s): Toby Fox
Style: Transcription

AutoScroll: Slow | Medium | Fast
Song title: sans.
Game: Undertale
Composer: Toby Fox
Instrument: Bass
Tabber: Estolle
Date: 11/2/2015


**Tune 1/2 step down**

Gb|------------|------------|------------|------------|
Db|------------|------------|------------|-----------*| Repeat
Ab|-0--0-------|-0--0-------|-5--5-------|-5--5----3-*|  Once
Eb|------0-----|------0--3--|------5-----|------5-----|

Gb|------------|------------|------------|------------|
Db|-3--3-------|-2--2----0--|-3--3-------|------------| Repeat back
Ab|------3-----|------2-----|------3-----|-2--2-------| to beginning
Eb|------------|------------|------------|------0--4--|


Easy, eh?
Login or Register to remove this ad.