Metal Crusher (Undertale) Guitar Tab

Submitted: Nov 13, 2015 by bassguitarbill

3
Average: 3 (1 vote)
Download | Listen
Game: Undertale
Composer(s): Toby Fox
Style: Transcription

AutoScroll: Slow | Medium | Fast
Title: Metal Crusher
Artist: Toby Fox
Album: Undertale
Author: BassguitarBill


Intro:

E|-11---11----------------------|---------------------------|
B|------------------------------|---------------------------|
G|---------8---8----------------|---------------------------|
D|-----------------9----9-------|-----------------6---------|
A|-------------------------6----|-6----6--6---6-------------|
E|------------------------------|---------------------------|


A Section:

E|-12--11-9--11--9-------------------------|---------------------------------------------|
B|------------------12-11--9--8--9---------|----------------9--12-11-9---9--11-12--11-12-|
G|-----------------------------------8--9--|-8--9--8--7--8-------------------------------|
D|-----------------------------------------|---------------------------------------------|
A|-----------------------------------------|---------------------------------------------|
E|-----------------------------------------|---------------------------------------------|


E|-9---------------------------------------|---------------------------------------16--|
B|-----12-11--------11-12--11-9------------|-------------------12-11-9---9--8--9-------|
G|-----------12--12--------------8---8--9--|-8--7--8--9--8-----------------------------|
D|-----------------------------------------|----------------9--------------------------|
A|-----------------------------------------|-------------------------------------------|
E|-----------------------------------------|-------------------------------------------|


E|-12--11-9--11--9-------------------------|---------------------------------------------|
B|------------------12-11--9--8--9---------|----------------9--12-11-9---9--11-12--11-12-|
G|-----------------------------------8--9--|-8--9--8--7--8-------------------------------|
D|-----------------------------------------|---------------------------------------------|
A|-----------------------------------------|---------------------------------------------|
E|-----------------------------------------|---------------------------------------------|


E|-9---------------------------------------|-----------------------------------------9--11-|
B|-----12-11--------11-12--11-9------------|-------------------12-11-9---9--8--9--12-------|
G|-----------12--12--------------8---8--9--|-8--7--8--9--8---------------------------------|
D|-----------------------------------------|----------------9------------------------------|
A|-----------------------------------------|-----------------------------------------------|
E|-----------------------------------------|-----------------------------------------------|


B Section:

E|-12------------------|-----------11---10---|-9-------------------|-----------------------------9--11-14-|
B|-------12--9---------|-8-------------------|-------10--8---------|-9--8--9---11-9--11--12---12----------|
G|-----------------9---|------8--------------|-----------------8---|--------------------------------------|
D|---------------------|---------------------|---------------------|--------------------------------------|
A|---------------------|---------------------|---------------------|--------------------------------------|
E|---------------------|---------------------|---------------------|--------------------------------------|


E|-16----14--12----11--|-10---15--------11---|-9-----9----12---|-11--------11-12-11-10-11---|
B|---------------------|-----------11--------|-----------------|----------------------------|
G|---------------------|---------------------|-----------------|----------------------------|
D|---------------------|---------------------|-----------------|----------------------------|
A|---------------------|---------------------|-----------------|----------------------------|
E|---------------------|---------------------|-----------------|----------------------------|



Login or Register to remove this ad.