Ads

Home (Undertale) Guitar Tab

Submitted: Feb 29, 2016 by FeralCadence

5
Average: 5 (2 votes)
Download | Listen
Game: Undertale
Composer(s): Toby Fox
Style: Arrangement, Fingerstyle

AutoScroll: Slow | Medium | Fast
Title: Home
Artist: Toby Fox
Album: Undertale OST
Author: FeralCadence


Track 1: Guitar

   |     |     |     |      |     |     |     |      |     |     |     |      |     |     |     |     
D|------------------------|-----------0------------|------------------------|-----------0------------|
A|-----------0-----------0|-----------------------0|-----------0-----------0|------------------------|
G|-------0-----------0----|-------0-----------0----|-------0-----------0----|-------0----------------|
D|-----0-----------0------|-----0-----------0------|-----0-----------0------|-----0------------------|
A|------------------------|-2----------------------|-1----------------------|------------------------|
D|-5----------------------|------------------------|------------------------|------------------------|


   |     |     |     |      |     |     |     |     |     |     |     |      |     |     |     |      
D|------------------------|------------------------|-----------0------------|-----5-4---0------------|
A|-----------0-----------0|-----------0-----------0|-----------------------0|-------------------0----|
G|-------0-----------0----|-------0-----------0----|-------0-----------0----|-----------------0-----0|
D|-----0-----------0------|-----0-----------0------|-----2-----------2------|------------------------|
A|------------------------|-2----------------------|-3----------------------|------------------------|
D|-5----------------------|------------------------|------------------------|------------------------|


   |     |     |     |      |     |     |     |      |     |     |     |      |     |     |     |
D|------------------------|------------------------|-----------------0------|-----------------0------|
A|-----------0-----------0|-----------0-----------0|-----------0-------0----|-----------0-----------0|
G|-------0-----------0----|-------0-----------0----|-------0---------------0|-------0-----------0----|
D|-----0-----------0------|-----0-----------0------|-----0------------------|-----0------------------|
A|------------------------|-2----------------------|-1----------------------|-1---------0------------|
D|-5----------------------|------------------------|------------------------|------------------------|


   |     |     |     |      |     |     |     |      |     |     |     |      |     |     |     |     
D|-----------------------0|-----------0------------|------------------------|-------------0----------|
A|-----------0------------|-----------------3-2----|-----------0-----------0|---------0---0----------|
G|-------0-----------0----|-------0---------------0|-------0-----------0----|-----0-------0----------|
D|-----0-----------0------|-----0------------------|-----0-----------0------|------------------------|
A|------------------------|-2----------------------|-1----------------------|-0----------------------|
D|-5----------------------|------------------------|------------------------|------------------------|


   |     |     |     |      |     |     |     |      |     |     |     |      |     |     |     |     
D|-----------0------------|------------------------|-----------0------------|------------------------|
A|-----------0------------|-0---------0------------|-----------0-----0------|-----------0------------|
G|-0-----0---------0------|-------0---------0------|-0-----0-----------0----|-------0---------0------|
D|-----0-------------0----|-----0-------------0----|-----0------------------|-0---0-------------0----|
A|------------------------|-2----------------------|-1----------------------|-0----------------------|
D|-5----------------------|------------------------|------------------------|------------------------|


   |     |     |     |      |     |     |     |      |     |     |     |      |     |     |     |     
D|------------------------|-0---------2------------|-0----------------------|------------------------|
A|-------------0----------|-----------0-------0----|-0-----------0----------|-----------2-0----------|
G|-0-----0-----------0----|-------------0----------|-----------------------0|-------0---------0------|
D|-----0------------------|-------0----------------|-------2-----0----------|-----0-------------0----|
A|------------------------|-2----------------------|-3-----------------0----|------------------------|
D|-5----------------------|------------------------|-----------------------5|------------------------|


   |     |     |     |      |     |     |     |      |     |     |     |      |     |     |     |
D|-----------0------------|------------------------|-----------0------------|------------------------|
A|-----------0------------|-0---------0------------|-----------0------------|-----------0------------|
G|-0-----0---------0------|-------0---------0------|-0-----0---------0------|-------0----------------|
D|-----0-------------0----|-----0-------------0----|-----0-------------0---0|-----0-------------0----|
A|------------------------|-2---------------------2|-1---------------------0|-----------------0------|
D|-5----------------------|------------------------|------------------------|------------------------|


   |     |     |     |      |     |     |     |      |     |     |     |      |     |     |     |
D|------------------------|-0---------2------------|-0----------------------|------------------------|
A|-------------0----------|-----------0------------|-0-----------0----------|-----------2-0----------|
G|-0-----0---------0------|------------------------|-------------0---------0|-------0---------0------|
D|-----0-------------0----|-------0----------------|-----------------------0|-----0-------------0----|
A|------------------------|-2-----------2----------|-3-----------0----------|------------------------|
D|-5----------------------|------------------------|-----------------------5|------------------------|


   |     |     |     |      |     |     |     |      |     |     |     |      |     |     |     |
D|-------------0----------|------------------------|-------------4---3---2--|-0----------------------|
A|-------------------2----|-0---------------------0|------------------------|------------------------|
G|-------0-----------0----|-------0---------0------|-------0-----------0----|------------------------|
D|-0----------------------|-------------4----------|------------------------|-------3---------3------|
A|-3-----------3----------|-3-----------3----------|-2-----------2----------|-1-----------1----------|
D|------------------------|------------------------|------------------------|------------------------|


   |     |     |     |      |     |     |     |      |     |     |     |      |     |     |     |
D|-------------0----------|------------------------|------------------------|------------------------|
A|-------------------2----|-0-----------0---2------|-------------0----------|-0----------------------|
G|------------------------|-------0----------------|------------------------|-------0---------0------|
D|-------2-----------0----|-----------------------4|------------------------|-0-----------4----------|
A|-0-----------0----------|-------0---------0------|-------0----------------|-2-----------5----------|
D|------------------------|-0-----------0----------|-1----------------------|-------------0----------|


   |     |     |     |      |     |     |     |      |     |     |     |      |     |     |     |
D|-------------0----------|------------------------|-------------4---3---2--|-0----------------------|
A|-------------------2----|-0---------------------0|------------------------|------------------------|
G|-------0-----------0----|-------0---------0------|-------0-----------0----|------------------------|
D|-0----------------------|-------------4----------|------------------------|-------3---------3------|
A|-3-----------3----------|-3-----------3----------|-2-----------2----------|-1-----------1----------|
D|------------------------|------------------------|------------------------|------------------------|


   |     |     |     |      |     |     |     |      |     |     |     |      |     |     |     |
D|-------------0----------|------------------------|------------------------|------------------------|
A|-------------------2----|-0-----------0-----2----|-------------0----------|-0----------------------|
G|------------------------|-------0----------------|------------------------|-------0---------0------|
D|-2----------------------|------------------------|-4----------------------|-0-----------4----------|
A|-0----------------------|-0----------------------|-0----------------------|-2-----------5----------|
D|------------------------|-0----------------------|-1----------------------|-------------0----------|


   |     |     |     |      |     |     |     |      |     |     |     |      |     |     |     |
D|-0----------------------|-------------------0----|------------------------|------------------------|
A|-3----------------------|-------------3----------|-2----------------------|-------------0-----2----|
G|-0----------------------|-------------0----------|-0----------------------|------------------------|
D|-0----------------------|------------------------|------------------------|-------------4----------|
A|------------------------|-------------3----------|-2----------------------|-------------0----------|
D|------------------------|------------------------|------------------------|------------------------|


   |     |     |     |      |     |     |     |      |     |     |     |      |     |     |     |
D|------------------------|------------------------|------------------------|------------------------|
A|------------------------|------------------------|------------------------|------------------------|
G|-0----------------------|-0----------------------|-0----------------------|-0----------------------|
D|-2----------------------|------------------------|------------------------|-------------0----------|
A|-0----------------------|-2----------------------|-1----------------------|-0-----------2----------|
D|------------------------|-5----------------------|-3----------------------|-2-----------5----------|
Login or Register to remove this ad.

2 comments on Home

I like this! Great job.

5

I like this! Great job.

Sounds great with Capo 2!

Much easier to play then the other versions on here.