His Theme (Undertale) Guitar Tab

Submitted: Nov 07, 2015 by BtheDestroyer

3.4
Average: 3.4 (5 votes)
Download | Listen
Game: Undertale
Composer(s): Toby Fox
Style: Transcription

AutoScroll: Slow | Medium | Fast
                                  His Theme                                     


                                                                        Toby Fox
Track 1



     Q    Q    Q    Q       Q.     Q.     Q       Q    Q    Q    Q     
E||----------------------|---------------------|----------------------|
B||-------2--------------|---------------------|----------------------|
G||------------4---------|--3------3------4----|------------4---------|
D||--4--------------4----|---------------------|-------4---------4----|
A||----------------------|---------------------|----------------------|
E||----------------------|---------------------|----------------------|


  Q.     Q.     Q       Q    Q    Q    Q       Q.     Q.     Q     
---------------------|----------------------|---------------------|
---------------------|-------2--------------|---------------------|
--3------3------4----|------------4---------|--3------3------4----|
---------------------|--4--------------4----|---------------------|
---------------------|----------------------|---------------------|
---------------------|----------------------|---------------------|


  Q    Q    Q    Q       Q.     Q.     Q      
----------------------|---------------------||
-----------------4----|--2-------------2----||
------------4---------|---------4-----------||
-------4--------------|---------------------||
----------------------|---------------------||
----------------------|---------------------||
Login or Register to remove this ad.