Ads

Bird That Carries You Over A Disproportionately Small Gap (Undertale) Guitar Tab

Submitted: Aug 24, 2016 by johnbie (Last updated: Jan 23, 2017)

4.5
Average: 4.5 (2 votes)
Download | Listen
Game: Undertale
Composer(s): Toby Fox
Style: Arrangement, Fingerstyle

Click here for a video example.

AutoScroll: Slow | Medium | Fast
Bird That Carries You Over A Disproportionately Small Gap
Song By Toby Fox
Arranged by John Lee



     E  E  E  E  E  E  E  E     E  E  E  E  E  E  E  E     E  E  E  E  E  E  E  E   
E||--------------------------|--------------------------|--------------------------|
B||--2--2-----2--2--2-----2--|--0--0--0--0--0--0--4--4--|--2--2-----2--2--2-----2--|
G||--------------------------|--------------------------|--------------------------|
D||--------------------------|--------------------------|--------------------------|
A||--0--------0-----0-----0--|--2--------2-----2-----2--|--0--------0-----0-----0--|
E||--------------------------|--------------------------|--------------------------|


  E  E  E  E  E  E  E  E     Q    E  E  Q    E  S S    Q.     E  Q    Q     
--------------------------|-----------------------1-|--2-------------------|
--0--0-----0-----0-----0--|-------0-----2-------4---|--2-------------------|
--------------------2-----|-------------------------|----------------------|
--1--------1-----1-----1--|-------2-----------------|------------1---------|
--------------------------|--0---------------0------|--2--------------2----|
--------------------------|----------0--------------|---------2------------|


  Q    E  E  Q    E  S S    Q.     Q.     Q       Q    E  E  Q    E  S S  
---------------------1-2-|--4------------------|-------6-----4-------2---|
-------0-----2-----------|---------------------|-----------------------4-|
-------------------------|---------------------|-------------------------|
-------2-----------------|--1------1-----------|-------------------------|
--0---------------0------|----------------2----|--0---------------0------|
----------0--------------|---------------------|----------0--------------|


  Q.     E  Q    Q       Q    E  E  Q    E  S S    Q.     Q.     Q     
--1-------------------|-------6-----4-----------|--9------------------|
----------------------|---------------------7-9-|---------------------|
----------------------|-------------------------|---------------------|
------------1---------|-------------------------|---------------------|
--2--------------2----|--0---------------0------|--6------6-----------|
---------2------------|----------0--------------|----------------7----|


  E  E  E  E  E  E  E  E     E  E  E  E  E  E  E  E     E  E  E  E  E  E  E  E   
--------------------------|--------------------------|--------------------------|
--2--2-----2--2--2-----2--|--0--0--0--0--0--0--4--4--|--2--2-----2--2--2-----2--|
--------------------------|--------------------------|--------------------------|
--------------------------|--------------------------|--------------------------|
--0--------0-----0-----0--|--2--------2-----2-----2--|--0--------0-----0-----0--|
--------------------------|--------------------------|--------------------------|


  E  E  E  E  E  E  E  E    
--------------------------||
--0--0-----0-----0-----0--||
--------------------2-----||
--1--------1-----1-----1--||
--------------------------||
--------------------------||



Duration Legend
---------------
W - whole
H - half
Q - quarter
E - 8th
S - 16th
. - note dotted
Login or Register to remove this ad.