Ads

Battle With True Hero (Undertale) Guitar Tab

Submitted: Feb 20, 2016 by johnbie (Last updated: May 13, 2016)

5
Average: 5 (10 votes)
Download | Listen
Game: Undertale
Composer(s): Toby Fox
Style: Arrangement, Fingerstyle

AutoScroll: Slow | Medium | Fast
Battle with a True Hero                             
Song by Toby Fox
Arranged by John Lee


     E.  E.  E.  E.  E  E     E.  E.  E.  E.  E  E     E.  E.  E.  E.  E  E   
E||------0-----------------|------------------------|------0-----------------|
B||--3-----------0---------|--1-------3-------------|--3-----------0---------|
G||----------2-------0-----|------0-------0---------|----------2-------0-----|
D||---------------------2--|------------------4--0--|---------------------2--|
A||------------------------|------------------------|------------------------|
E||------------------------|------------------------|------------------------|


  E.  E.  E.  E.  Q         E.  E.  E.  E.  E  E     E.  E.  E.  E.  E  E   
--------------3---2----||-------0-----------------|------------------------|
--1-------3------------||---3-----------0---------|--1-------3-------------|
------0----------------||*----------2-------0-----|------0-------0---------|
-----------------------||*------------------2--2--|------------------4-----|
-----------------------||-------------------------|------------------5--5--|
-----------------------||---0---------------------|--0---------------------|

                         ________________________   _______________________
                        | 1.                       | 2. 
  E.  E.  E.  E.  E  E     E.  E.  E.  E.  E  E       E.  E.  E  S E.  Q     
------0-----------------|--------------3---2------||---------------3---2----|
--3-----------0---------|--1-------3--------------||--1-------3-------------|
----------2-------0-----|------0-----------------*||------0---2-------------|
------------------2--2--|---------------------0--*||------0-----------------|
------------------------|------------------0------||--3---------------------|
--0---------------------|--0----------------------||------------------------|


    E.  E.  E.  E.  E  E     E.  E.  E.  E.  E  E     E.  E.  E.  E.  E  E   
|-------0-----------------|------------------------|------0-----------------|
|---3-----------0---------|--1-------3-------------|--3-----------0---------|
|*----------2-------0-----|------0-------0---------|----------2-------0-----|
|*--2---------------2--2--|--2---------------4-----|--2---------------2--2--|
|-------------------------|------------------5--5--|------------------------|
|---0---------------------|--0---------------------|--0---------------------|

  ______________________   _______________________
 | 1.2.                   | 3. 
  E.  E.  E.  E.  E  E   3x  E.  E.  E  S E.  Q         E.  E.  E  E  E  E  E   
--------------3---2------||---------------3---2----||-------0---3--0-----------|
--1-------3--------------||--1-------3-------------||---0-------------0--------|
------0-----------------*||------0---2-------------||*-------------------0-----|
--2------------------0--*||------0-----------------||*--2-------2-----------2--|
------------------0------||--3---------------------||--------------------------|
--0----------------------||------------------------||---0----------------------|


  E.  E.  E  E  E  E  E     E.  E.  E.  E.  E  E     E.  E.  E  E  E  E  E   
-------------------2--3--|--5---------------------|-------------2--3--5--7--|
--1-------3--------------|------5-------0---------|--1-------3--------------|
------0---------0--------|------------------0-----|------0------------------|
-------------0-----4-----|----------7----------2--|-------------0-----------|
-------------------------|--7---------------------|--2----------------------|
--0----------------------|------------------------|-------------------------|


  E.  E.  E.  E.  E  E     E.  E.  E  E  E  E  E     E.  E.  E.  E.  E  E   
--2---0-----------------|-------------------------|--2---0-----------------|
--------------0---------|--1-------3--------------|--------------0---------|
----------2-------0-----|------0---------0--------|----------2-------0-----|
--2------------------2--|-------------0-----4--0--|--2------------------2--|
------------------------|--3----------------------|------------------------|
------------------------|-------------------------|------------------------|


  E.  E.  E  E  E  Q       E.  E.  E  E  E  E  E     E.  E.  E  E  E  E  E   
----------------3--2----|------0---3--0-----------|-------------------2--3--|
--1-------3-------------|--0-------------0--------|--1-------3--------------|
------0-----------------|-------------------0-----|------0---------0--------|
-------------0----------|--2-------2-----------2--|-------------0-----4-----|
--3---------------------|-------------------------|-------------------------|
------------------------|--0----------------------|--0----------------------|


  E.  E.  E.  E.  E  E     E.  E.  E  E  E  E  E      E.  E.  E.  E.   E  E   
--5---------------------|-------------2--3--5--7--|--10----------------------|
------5-------0---------|--1-------3--------------|--------------------------|
------------------0-----|------0------------------|-------9------------------|
----------7----------2--|-------------0-----------|-----------7---9----------|
--7---------------------|--2----------------------|---7---------------10--7--|
------------------------|-------------------------|--------------------------|


   E.  E.  E  E  E   E  E     E.  E.  E.  E.  E  E     E.  E.  E  E  E  Q       
--------------------12-----|--7---------------------|----------------3--2-----||
---------------------------|------------------------|--1-------3--------------||
-------0---7-----0---------|--7---9-----------0-----|------0-----------------*||
--10----------0---------0--|----------7---9---------|-------------0----------*||
---------------------9-----|--7------------------7--|--3----------------------||
---8-----------------------|------------------------|-------------------------||


  ^                    ^                                                   
  E  E  E  E  E  E     Q    E  E  E  E     Q.     Q.        Q.     Q.      
-----7--5--7-----7--|-------------------|---------5------|----------------|
--5-----------8-----|--7----7--8--7--8--|--7-------------|--5------3------|
--------------------|-------------------|----------------|----------------|
--5-----------------|-------------------|----------------|----------------|
--5-----------------|--5----------------|--0-------------|----------------|
--------------------|--5----------------|--0-------------|--0-------------|


  ^                    ^                                      v               
  E  E  E  E  E  E     Q    E  E  E  E     Q    Q     Q       Q    Q    Q     
-----7--5--7-----7--|-------------------|-------5----10----|--7--------------|
--5-----------8-----|--7----7--8--7--8--|--7---------------|--8----7---------|
--------------------|-------------------|------------------|------------7----|
--5-----------------|-------------------|------------------|-----------------|
--5-----------------|--5----------------|--0---------------|-----------------|
--------------------|--5----------------|--0---------------|--7--------------|


  ^                    ^                                    ^              
  E  E  E  E  E  E     Q    E  E  E  E     Q.     Q.        Q.     Q.      
-----7--5--7-----7--|-------------------|---------5------|--0-------------|
--5-----------8-----|--7----7--8--7--8--|--7-------------|--0------3------|
--------------------|-------------------|----------------|--0-------------|
--5-----------------|-------------------|----------------|----------------|
--7-----------------|--7----------------|--7-------------|----------------|
--------------------|--8----------------|--7-------------|----------------|


  ^                    ^                                       ^                
  E  E  E  E  E  E     Q    E  E  E  E     Q    Q     Q        Q    Q     Q     
-----7--5--7-----7--|-------------------|-------5----10----|---7---------------|
--5-----------8-----|--7----7--8--7--8--|--7---------------|-------------------|
--------------------|-------------------|------------------|-------------------|
--5-----------------|-------------------|------------------|-------------------|
--7-----------------|--7----------------|--7---------------|--10----9----------|
--------------------|--8----------------|--7---------------|---7---------10----|


    E  E  E  E  E  E     Q    E  E  E  E     Q.     Q.        Q.     Q.      
|------7--5--7-----7--|-------------------|--2------5------|--0-------------|
|---5-----------8-----|--7----7--8--7--8--|----------------|---------3------|
|*--------------------|-------------------|----------------|----------------|
|*--------------------|-------------------|--0-------------|--2-------------|
|---5-----------------|-------------------|----------------|----------------|
|---------------------|-------------------|----------------|----------------|


  E  E  E  E  E  E     Q    E  E  E  E     Q    Q     Q       H.            
-----7--5--7-----7--|-------------------|-------5----10----|--7------------|
--5-----------8-----|--7----7--8--7--8--|--7---------------|---------------|
--------------------|-------------------|------------------|---------------|
--------------------|-------------------|--0---------------|---------------|
--5-----------------|--5----------------|------------------|---------------|
--------------------|-------------------|------------------|--7------------|


  E  E  E  E  E  E     Q    E  E  E  E     Q.     Q.        Q.     Q.        Q.     E  E  E   
-----7--5--7-----7--|-------------------|--2------5------|--0-------------|--0---------0--2--|
--5-----------8-----|--7----7--8--7--8--|----------------|---------3------|---------1--------|
--------------------|-------------------|----------------|----------------|------------------|
--------------------|-------------------|--0-------------|--2-------------|--0---------------|
--5-----------------|--5----------------|----------------|----------------|------------------|
--------------------|-------------------|----------------|----------------|------------------|


  Q    Q    Q       H.              H.             
--3----2---------|--0------------|--0------------||
------------3----|---------------|---------------||
-----------------|---------------|---------------||
--0--------------|--2------------|---------------||
-----------------|---------------|---------------||
-----------------|---------------|--0------------||



Duration Legend
---------------
W - whole
H - half
Q - quarter
E - 8th
S - 16th
. - note dotted
Login or Register to remove this ad.