Anticipation (Undertale) Guitar Tab

Submitted: Aug 30, 2016 by floflo79

4
Average: 4 (1 vote)
Download | Listen
Game: Undertale
Composer(s): Toby Fox
Style: Transcription

AutoScroll: Slow | Medium | Fast
Anticipation
from Undertale
composed by Toby Fox
tabbed by floflo79
made 29/08/2016

E|---------------------------------|---------------------------------|---------------------------------|
B|---------------------------------|---------------------------------|---------------------------------|
G|---------------------------------|---------------------------------|---------------------------------|
D|-----5---5-------5---5-------5---|-5-------5---5-------5-------5---|-----5---5-------5---5-------5---|
A|---------------------------------|---------------------------------|---------------------------------|
E|---------------------------------|---------------------------------|---------------------------------|


E|---------------------------|---------------------------------|---------------------------------|
B|---------------------------|---------------------------------|---------------------------------|
G|---------3------------5----|---------------------------------|---------------------------------|
D|-----3------------5--------|-----5---5-------5---5-------5---|-5-------5---5-------5-------5---|
A|-1-----------3-------------|---------------------------------|---------------------------------|
E|---------------------------|---------------------------------|---------------------------------|


E|---------------------------------|---------------------------|---------------------------------|
B|---------------------------------|---------------------------|---------------------------------|
G|---------------------------------|---------3------------6----|---------------------------------|
D|-----5---5-------5---5-------5---|-----3------------6--------|-----5---5-------5---5-------5---|
A|---------------------------------|-1-----------4-------------|---------------------------------|
E|---------------------------------|---------------------------|---------------------------------|


E|---------------------------------|---------------------------------|---------------------------|
B|---------------------------------|---------------------------------|---------------------------|
G|---------------------------------|---------------------------------|---------3------------5----|
D|-5-------5---5-------5-------5---|-----5---5-------5---5-------5---|-----3------------5--------|
A|---------------------------------|---------------------------------|-1-----------3-------------|
E|---------------------------------|---------------------------------|---------------------------|


E|---------------------------------|---------------------------------|---------------------------------|
B|---------------------------------|---------------------------------|---------------------------------|
G|---------------------------------|---------------------------------|---------------------------------|
D|-----5---5-------5---5-------5---|-5-------5---5-------5-------5---|-----5---5-------5---5-------5---|
A|---------------------------------|---------------------------------|---------------------------------|
E|---------------------------------|---------------------------------|---------------------------------|


E|---------------------------|
B|---------------------------|
G|---------3------------6----|
D|-----3------------6--------|
A|-1-----------4-------------|
E|---------------------------|



Login or Register to remove this ad.