Scraper Sky High (Under Night In-Birth) Guitar Tab

Submitted: Jun 30, 2018 by einkurogane

5
Average: 5 (2 votes)
Download | Listen
Game: Under Night In-Birth
Composer(s): Raito
Style: 2 or more instruments, Transcription

AutoScroll: Slow | Medium | Fast
                                         Scraper Sky High                                           

Game: Under Night In-Birth
Composer: Raito

Guitar 1:

     Q    E  Q    E  Q       Q    E  Q    E  Q       Q    E  Q    E  Q       Q    E  Q    E  Q     
E||-----------------------|-----------------------|-----------------------|-----------------------|
B||------------------5----|------------------5----|------------------5----|------------------5----|
G||--6-------4------------|--6-------4------------|--6-------4------------|--6-------4------------|
D||-----------------------|-----------------------|-----------------------|-----------------------|
A||-----------------------|-----------------------|-----------------------|-----------------------|
E||-----------------------|-----------------------|-----------------------|-----------------------|


  Q    E  Q    E  Q       Q    E  Q    E  Q       Q    E  Q    E  Q       Q    E  Q    E  Q     
------------------5----|------------------5----|------------------5----|-----------------------|
--7-------5------------|--7-------5------------|--7-------5------------|--7-------5------------|
-----------------------|-----------------------|-----------------------|------------------7----|
-----------------------|-----------------------|-----------------------|-----------------------|
-----------------------|-----------------------|-----------------------|-----------------------|
-----------------------|-----------------------|-----------------------|-----------------------|


  Q    E  Q    E  Q       Q    E  Q    E  Q       Q    E  Q    E  Q       Q    E  Q    E  Q     
-----------------------|-----------------------|-----------------------|-----------------------|
------------------5----|------------------5----|------------------5----|------------------5----|
--6-------4------------|--6-------4------------|--6-------4------------|--6-------4------------|
-----------------------|-----------------------|-----------------------|-----------------------|
-----------------------|-----------------------|-----------------------|-----------------------|
-----------------------|-----------------------|-----------------------|-----------------------|


  Q    E  Q    E  Q       Q    E  Q    E   Q       Q    E  Q    E  Q       E  Q    E  Q    Q     
------------------5----|------------------------|--9-------9-------9----|-----9-------9----9----|
--7-------5------------|--7---------------10----|-----------------------|-----------------------|
-----------------------|----------9-------------|-----------------------|-----------------------|
-----------------------|------------------------|-----------------------|-----------------------|
-----------------------|------------------------|-----------------------|-----------------------|
-----------------------|------------------------|-----------------------|-----------------------|


     Q    Q     Q     E  E     E   Q    Q    E  E  E      Q    Q     Q     E  E   
|---10----9----------10--9--|--L--------7-------5--7--|--10----9----------10--9--|
|--------------10-----------|-----10---------7--------|-------------10-----------|
|*--------------------------|-------------------------|--------------------------|
|*--------------------------|-------------------------|--------------------------|
|---------------------------|-------------------------|--------------------------|
|---------------------------|-------------------------|--------------------------|


  E   Q     Q     E   E  E      Q    Q     Q     E  E     E   Q    Q    E  E  E   
--L--------12----12--10--9--|--10----9----------10--9--|--L--------7-------5--7--|
-----10---------------------|-------------10-----------|-----10---------7--------|
----------------------------|--------------------------|-------------------------|
----------------------------|--------------------------|-------------------------|
----------------------------|--------------------------|-------------------------|
----------------------------|--------------------------|-------------------------|


   Q    Q     Q     E  E     E   Q     Q     E   E  E     Q    Q     Q     E  E   
--10----9----------10--9--|--L--------12----12--10--9--|------------------10--9--|
-------------10-----------|-----10---------------------|------------10-----------|
--------------------------|----------------------------|-------------------------|
--------------------------|----------------------------|-------------------------|
--------------------------|----------------------------|-------------------------|
--------------------------|----------------------------|-------------------------|


  E   Q    Q    E  E  E      Q    Q     Q     E  E     E   Q     Q     E   E  E   
--L--------7-------5--7--|--10----9----------10--9--|--L--------12----12--10--9--|
-----10---------7--------|-------------10-----------|-----10---------------------|
-------------------------|--------------------------|----------------------------|
-------------------------|--------------------------|----------------------------|
-------------------------|--------------------------|----------------------------|
-------------------------|--------------------------|----------------------------|


   Q    Q     Q     E  E     E   Q    Q    E  E  E      Q    Q     Q     E  E   
--10----9----------10--9--|--L--------7-------5--7--|--10----9----------10--9--|
-------------10-----------|-----10---------7--------|-------------10-----------|
--------------------------|-------------------------|--------------------------|
--------------------------|-------------------------|--------------------------|
--------------------------|-------------------------|--------------------------|
--------------------------|-------------------------|--------------------------|


  E   Q    Q    E  E  E      Q    Q     Q     E  E     E   Q    Q    E  E  E   
--L--------7-------5--7--|--10----9----------10--9--|--L--------7-------5--7--|
-----10---------7--------|-------------10-----------|-----10---------7--------|
-------------------------|--------------------------|-------------------------|
-------------------------|--------------------------|-------------------------|
-------------------------|--------------------------|-------------------------|
-------------------------|--------------------------|-------------------------|


  Q    E  Q    E  E  E     W                                                 
--9-------9-------9--9--|--L----------------|-------|-------|-------|-------|
------------------------|-------------------|-------|-------|-------|-------|
------------------------|-------------------|-------|-------|-------|-------|
------------------------|-------------------|-------|-------|-------|-------|
------------------------|-------------------|-------|-------|-------|-------|
------------------------|-------------------|-------|-------|-------|-------|


  E  E  E  E  E  E  E  E     E  E  E  E  E  E  E  E     E  E  E  E  E  E  E  E   
--------------------------|--------------------------|--------------------------|
--------------------------|--------------------------|--------------------------|
--4-----4-----4--4-----4--|--4-----4--4-----4--2-----|--4-----4-----4--4-----4--|
--4-----4-----4--4-----4--|--4-----4--4-----4--2-----|--4-----4-----4--4-----4--|
--2-----2-----2--2-----2--|--2-----2--2-----2--0-----|--2-----2-----2--2-----2--|
--------------------------|--------------------------|--------------------------|


  E  E  E  E  E  E  E  E                                     E  E  E  E  E  E  E  E   
--------------------------|-------|-------|-------|-------|--------------------------|
--------------------------|-------|-------|-------|-------|--------------------------|
--4-----4--4-----4--5-----|-------|-------|-------|-------|--4-----4-----4--4-----4--|
--4-----4--4-----4--5-----|-------|-------|-------|-------|--4-----4-----4--4-----4--|
--2-----2--2-----2--3-----|-------|-------|-------|-------|--2-----2-----2--2-----2--|
--------------------------|-------|-------|-------|-------|--------------------------|


  E  E  E  E  E  E  E  E     E  E  E  E  E  E  E  E     E  E  E  E  E  E  E  E                   
--------------------------|--------------------------|--------------------------|-------|-------|
--------------------------|--------------------------|--------------------------|-------|-------|
--4-----4--4-----4--2-----|--4-----4-----4--4-----4--|--4-----4--4-----4--5-----|-------|-------|
--4-----4--4-----4--2-----|--4-----4-----4--4-----4--|--4-----4--4-----4--5-----|-------|-------|
--2-----2--2-----2--0-----|--2-----2-----2--2-----2--|--2-----2--2-----2--3-----|-------|-------|
--------------------------|--------------------------|--------------------------|-------|-------|


-------|-------|-------|-------|-------|-------|-------|-------|-------|-------|-------|-------|
-------|-------|-------|-------|-------|-------|-------|-------|-------|-------|-------|-------|
-------|-------|-------|-------|-------|-------|-------|-------|-------|-------|-------|-------|
-------|-------|-------|-------|-------|-------|-------|-------|-------|-------|-------|-------|
-------|-------|-------|-------|-------|-------|-------|-------|-------|-------|-------|-------|
-------|-------|-------|-------|-------|-------|-------|-------|-------|-------|-------|-------|


                                                   Q    Q     Q     E  E   
-------|-------|-------|-------|-------|-------|--10----9----------10--9--|
-------|-------|-------|-------|-------|-------|-------------10-----------|
-------|-------|-------|-------|-------|-------|--------------------------|
-------|-------|-------|-------|-------|-------|--------------------------|
-------|-------|-------|-------|-------|-------|--------------------------|
-------|-------|-------|-------|-------|-------|--------------------------|


  E   Q    Q    E  E  E      Q    Q     Q     E  E     E   Q     Q     E   E  E   
--L--------7-------5--7--|--10----9----------10--9--|--L--------12----12--10--9--|
-----10---------7--------|-------------10-----------|-----10---------------------|
-------------------------|--------------------------|----------------------------|
-------------------------|--------------------------|----------------------------|
-------------------------|--------------------------|----------------------------|
-------------------------|--------------------------|----------------------------|


   Q    Q     Q     E  E     E   Q    Q    E  E  E      Q    Q     Q     E  E   
--10----9----------10--9--|--L--------7-------5--7--|--10----9----------10--9--|
-------------10-----------|-----10---------7--------|-------------10-----------|
--------------------------|-------------------------|--------------------------|
--------------------------|-------------------------|--------------------------|
--------------------------|-------------------------|--------------------------|
--------------------------|-------------------------|--------------------------|


  E   Q     Q     E   E  E      Q    Q     Q     E  E     E   Q    Q    E  E  E   
--L--------12----12--10--9--|--10----9----------10--9--|--9--------7-------5--7--|
-----10---------------------|-------------10-----------|-----10---------7--------|
----------------------------|--------------------------|-------------------------|
----------------------------|--------------------------|-------------------------|
----------------------------|--------------------------|-------------------------|
----------------------------|--------------------------|-------------------------|


   Q    Q     Q     E  E     E   Q     Q     E   E  E      Q    Q     Q     E  E   
--10----9----------10--9--|--L--------12----12--10--9--|--10----9----------10--9--|
-------------10-----------|-----10---------------------|-------------10-----------|
--------------------------|----------------------------|--------------------------|
--------------------------|----------------------------|--------------------------|
--------------------------|----------------------------|--------------------------|
--------------------------|----------------------------|--------------------------|


  E   Q    Q    E  E  E      Q    Q     Q     E  E     E   Q    Q    E  E  E   
--L--------7-------5--7--|--10----9----------10--9--|--L--------7-------5--7--|
-----10---------7--------|-------------10-----------|-----10---------7--------|
-------------------------|--------------------------|-------------------------|
-------------------------|--------------------------|-------------------------|
-------------------------|--------------------------|-------------------------|
-------------------------|--------------------------|-------------------------|


   Q    Q     Q     E  E     E   Q    Q    E  E  E      Q    Q     Q     E  E   
--10----9----------10--9--|--L--------7-------5--7--|--10----9----------10--9--|
-------------10-----------|-----10---------7--------|-------------10-----------|
--------------------------|-------------------------|--------------------------|
--------------------------|-------------------------|--------------------------|
--------------------------|-------------------------|--------------------------|
--------------------------|-------------------------|--------------------------|


  E   Q    Q    E  E  E      Q    Q     Q     E  E     E   Q     Q     E   E  E   
--L--------7-------5--7--|--10----9----------10--9--|--L--------12----12--10--9--|
-----10---------7--------|-------------10-----------|-----10---------------------|
-------------------------|--------------------------|----------------------------|
-------------------------|--------------------------|----------------------------|
-------------------------|--------------------------|----------------------------|
-------------------------|--------------------------|----------------------------|


   Q    Q     Q     E  E     E   Q    Q    E  E  E      Q    Q     Q     E  E   
--10----9----------10--9--|--L--------7-------5--7--|--10----9----------10--9--|
-------------10-----------|-----10---------7--------|-------------10-----------|
--------------------------|-------------------------|--------------------------|
--------------------------|-------------------------|--------------------------|
--------------------------|-------------------------|--------------------------|
--------------------------|-------------------------|--------------------------|


  E   Q     Q     E   E  E      Q    Q     Q     E  E     E   Q    Q    E  E  E   
--L--------12----12--10--9--|--10----9----------10--9--|--9--------7-------5--7--|
-----10---------------------|-------------10-----------|-----10---------7--------|
----------------------------|--------------------------|-------------------------|
----------------------------|--------------------------|-------------------------|
----------------------------|--------------------------|-------------------------|
----------------------------|--------------------------|-------------------------|


   Q    Q     Q     E  E     E   Q     Q     E   E  E      Q    Q     Q     E  E   
--10----9----------10--9--|--L--------12----12--10--9--|--10----9----------10--9--|
-------------10-----------|-----10---------------------|-------------10-----------|
--------------------------|----------------------------|--------------------------|
--------------------------|----------------------------|--------------------------|
--------------------------|----------------------------|--------------------------|
--------------------------|----------------------------|--------------------------|


  E   Q    Q    E  E  E      Q    Q     Q     E  E     E   Q    Q    E  E  E   
--L--------7-------5--7--|--10----9----------10--9--|--L--------7-------5--7--|
-----10---------7--------|-------------10-----------|-----10---------7--------|
-------------------------|--------------------------|-------------------------|
-------------------------|--------------------------|-------------------------|
-------------------------|--------------------------|-------------------------|
-------------------------|--------------------------|-------------------------|


   Q    Q     Q     E  E     E   Q    Q    E  E  E                                   
--10----9----------10--9--|--L--------7-------5--7--|-------|-------|-------|-------|
-------------10-----------|-----10---------7--------|-------|-------|-------|-------|
--------------------------|-------------------------|-------|-------|-------|-------|
--------------------------|-------------------------|-------|-------|-------|-------|
--------------------------|-------------------------|-------|-------|-------|-------|
--------------------------|-------------------------|-------|-------|-------|-------|


  Q    E  Q    E  Q       Q    E  Q    E  Q       Q    E  Q    E  Q       Q    E  Q    E  Q     
-----------------------|-----------------------|-----------------------|-----------------------|
-----------------------|-----------------------|-----------------------|-----------------------|
--6-------4-------9----|--6-------4-------9----|--6-------4-------9----|--6-------4-------9----|
-----------------------|-----------------------|-----------------------|-----------------------|
-----------------------|-----------------------|-----------------------|-----------------------|
-----------------------|-----------------------|-----------------------|-----------------------|


  Q    E  Q    E  Q       Q    E  Q    E  Q       Q    E  Q    E  Q       Q    E  Q    E  Q     
------------------5----|------------------5----|------------------5----|-----------------------|
--7-------5------------|--7-------5------------|--7-------5------------|--7-------5-------3----|
-----------------------|-----------------------|-----------------------|-----------------------|
-----------------------|-----------------------|-----------------------|-----------------------|
-----------------------|-----------------------|-----------------------|-----------------------|
-----------------------|-----------------------|-----------------------|-----------------------|


  Q    E  Q    E  Q       Q    E  Q    E  Q       Q    E  Q    E  Q       Q    E  Q    E  Q     
-----------------------|-----------------------|-----------------------|-----------------------|
-----------------------|-----------------------|-----------------------|-----------------------|
--6-------4-------9----|--6-------4-------9----|--6-------4-------9----|--6-------4-------9----|
-----------------------|-----------------------|-----------------------|-----------------------|
-----------------------|-----------------------|-----------------------|-----------------------|
-----------------------|-----------------------|-----------------------|-----------------------|


  Q    E  Q    E  Q       Q    E  Q    E  Q       Q    E  Q    E  Q       E  Q    E  Q    Q       
------------------5----|------------------5----|--9-------9-------9----|-----9-------9----9-----||
--7-------5------------|--7-------5------------|-----------------------|------------------------||
-----------------------|-----------------------|-----------------------|-----------------------*||
-----------------------|-----------------------|-----------------------|-----------------------*||
-----------------------|-----------------------|-----------------------|------------------------||
-----------------------|-----------------------|-----------------------|------------------------||


-------||
-------||
-------||
-------||
-------||
-------||



Guitar 2: 

     W                   W                   W                   W                 
E||-------------------|-------------------|-------------------|-------------------|
B||-------------------|-------------------|-------------------|-------------------|
G||-------------------|-------------------|-------------------|-------------------|
D||--5----------------|--L----------------|--7----------------|--L----------------|
A||--5----------------|--L----------------|--7----------------|--L----------------|
E||--3----------------|--L----------------|--5----------------|--L----------------|


  W                   W                   W                   W                   W                 
-------------------|-------------------|-------------------|-------------------|-------------------|
-------------------|-------------------|-------------------|-------------------|-------------------|
--4----------------|--L----------------|-------------------|-------------------|-------------------|
--4----------------|--L----------------|--6----------------|--L----------------|--5----------------|
--2----------------|--L----------------|--6----------------|--L----------------|--5----------------|
-------------------|-------------------|--4----------------|--L----------------|--3----------------|


  W                   W                   W                   W                   W                 
-------------------|-------------------|-------------------|-------------------|-------------------|
-------------------|-------------------|-------------------|-------------------|-------------------|
-------------------|-------------------|-------------------|--4----------------|--L----------------|
--L----------------|--7----------------|--L----------------|--4----------------|--L----------------|
--L----------------|--7----------------|--L----------------|--2----------------|--L----------------|
--L----------------|--5----------------|--L----------------|-------------------|-------------------|


  Q    E  Q    E  Q       E  Q    E  Q    Q         E  E  E  E  E  E  E  E   
-----------------------|-----------------------||---------------------------|
-----------------------|-----------------------||---------------------------|
--4-------4-------4----|-----4-------4----4----||*--------------------------|
--4-------4-------4----|-----4-------4----4----||*--5--5--5--5--5--5--5--5--|
--2-------2-------2----|-----2-------2----2----||---5--5--5--5--5--5--5--5--|
-----------------------|-----------------------||---3--3--3--3--3--3--3--3--|


  E  E  E  E  E  E  E  E     E  E  E  E  E  E  E  E     E  E  E  E  E  E  E  E   
--------------------------|--------------------------|--------------------------|
--------------------------|--------------------------|--------------------------|
--------------------------|--------------------------|--------------------------|
--5--5--5--5--5--5--5--5--|--7--7--7--7--7--7--7--7--|--7--7--7--7--7--7--7--7--|
--5--5--5--5--5--5--5--5--|--7--7--7--7--7--7--7--7--|--7--7--7--7--7--7--7--7--|
--3--3--3--3--3--3--3--3--|--5--5--5--5--5--5--5--5--|--5--5--5--5--5--5--5--5--|


  E  E  E  E  E  E  E  E     E  E  E  E  E  E  E  E     E  E  E  E  E  E  E  E   
--------------------------|--------------------------|--------------------------|
--------------------------|--------------------------|--------------------------|
--4--4--4--4--4--4--4--4--|--4--4--4--4--4--4--4--4--|--------------------------|
--4--4--4--4--4--4--4--4--|--4--4--4--4--4--4--4--4--|--6--6--6--6--6--6--6--6--|
--2--2--2--2--2--2--2--2--|--2--2--2--2--2--2--2--2--|--6--6--6--6--6--6--6--6--|
--------------------------|--------------------------|--4--4--4--4--4--4--4--4--|


  E  E  E  E  E  E  E  E     E  E  E  E  E  E  E  E     E  E  E  E  E  E  E  E   
--------------------------|--------------------------|--------------------------|
--------------------------|--------------------------|--------------------------|
--------------------------|--------------------------|--------------------------|
--6--6--6--6--6--6--6--6--|--------5--5--5--5--5--5--|--5--5--5--5--5--5--5--5--|
--6--6--6--6--6--6--6--6--|--------5--5--5--5--5--5--|--5--5--5--5--5--5--5--5--|
--4--4--4--4--4--4--4--4--|--------3--3--3--3--3--3--|--3--3--3--3--3--3--3--3--|


  E  E  E  E  E  E  E  E     E  E  E  E  E  E  E  E     E  E  E  E  E  E  E  E   
--------------------------|--------------------------|--------------------------|
--------------------------|--------------------------|--------------------------|
--------------------------|--------------------------|--4--4--4--4--4--4--4--4--|
--7--7--7--7--7--7--7--7--|--7--7--7--7--7--7--7--7--|--4--4--4--4--4--4--4--4--|
--7--7--7--7--7--7--7--7--|--7--7--7--7--7--7--7--7--|--2--2--2--2--2--2--2--2--|
--5--5--5--5--5--5--5--5--|--5--5--5--5--5--5--5--5--|--------------------------|


  E  E  E  E  E  E  E  E     E  E  E  E  E  E  E  E     E  E  E  E  E  E  E  E   
--------------------------|--------------------------|--------------------------|
--------------------------|--------------------------|--------------------------|
--4--4--4--4--4--4--4--4--|--4--4--4--4--4--4--4--4--|--4--4--4--4--4--4--4--4--|
--4--4--4--4--4--4--4--4--|--4--4--4--4--4--4--4--4--|--4--4--4--4--4--4--4--4--|
--2--2--2--2--2--2--2--2--|--2--2--2--2--2--2--2--2--|--2--2--2--2--2--2--2--2--|
--------------------------|--------------------------|--------------------------|


  E  E  E  E  E  E  E  E     E  E  E  E  E  E  E  E     E  Q    E  Q    E  E     W                 
--------------------------|--------------------------|------------------------|-------------------|
--------------------------|--------------------------|------------------------|-------------------|
--4--4--4--4--4--4--4--4--|--4--4--4--4--4--4--4--4--|--4-------4-------4--4--|--L----------------|
--4--4--4--4--4--4--4--4--|--4--4--4--4--4--4--4--4--|--4-------4-------4--4--|--L----------------|
--2--2--2--2--2--2--2--2--|--2--2--2--2--2--2--2--2--|--2-------2-------2--2--|--L----------------|
--------------------------|--------------------------|------------------------|-------------------|


        >                               >                                    
  E  E  E  E  H                   E  E  E  E  H           H        H         
-----------------------|-------|-----------------------|--------------------|
-----------------------|-------|-----------------------|--------------------|
--4--L--4--4-----------|-------|-----------------------|--------------------|
--4--L--4--4-----------|-------|--5--L--5--5-----------|--7-----------------|
--2--L--2--2-----------|-------|--5--L--5--5-----------|--7-----------------|
-----------------------|-------|--3--L--3--3-----------|--5-----------------|


  E  E  E  E  E  E  E  E     E  E  E  E  E  E  E  E     E  E  E  E  E  E  E  E   
--------------------------|--------------------------|--------------------------|
--------------------------|--------------------------|--------------------------|
--4-----4-----4--4-----4--|--4-----4--4-----4--2-----|--4-----4-----4--4-----4--|
--4-----4-----4--4-----4--|--4-----4--4-----4--2-----|--4-----4-----4--4-----4--|
--2-----2-----2--2-----2--|--2-----2--2-----2--0-----|--2-----2-----2--2-----2--|
--------------------------|--------------------------|--------------------------|


                                   >                               >               
  E  E  E  E  E  E  E  E     E  E  E  E  H                   E  E  E  E  H         
--------------------------|-----------------------|-------|-----------------------|
--------------------------|-----------------------|-------|-----------------------|
--4-----4--4-----4--5-----|--4--L--4--4-----------|-------|-----------------------|
--4-----4--4-----4--5-----|--4--L--4--4-----------|-------|--5--L--5--5-----------|
--2-----2--2-----2--3-----|--2--L--2--2-----------|-------|--5--L--5--5-----------|
--------------------------|-----------------------|-------|--3--L--3--3-----------|


  H        H           E  E  E  E  E  E  E  E     E  E  E  E  E  E  E  E   
--------------------|--------------------------|--------------------------|
--------------------|--------------------------|--------------------------|
--------------------|--4-----4-----4--4-----4--|--4-----4--4-----4--2-----|
--7-----------------|--4-----4-----4--4-----4--|--4-----4--4-----4--2-----|
--7-----------------|--2-----2-----2--2-----2--|--2-----2--2-----2--0-----|
--5-----------------|--------------------------|--------------------------|


  E  E  E  E  E  E  E  E     E  E  E  E  E  E  E  E     Q    E  E  E  E  E  E   
--------------------------|--------------------------|-------------------------|
--------------------------|--------------------------|-------------------------|
--4-----4-----4--4-----4--|--4-----4--4-----4--5-----|-------------------------|
--4-----4-----4--4-----4--|--4-----4--4-----4--5-----|--5----5--5--5--5--5--5--|
--2-----2-----2--2-----2--|--2-----2--2-----2--3-----|--5----5--5--5--5--5--5--|
--------------------------|--------------------------|--3----3--3--3--3--3--3--|


  Q    E  E  E  E  E  E     Q    E  E  E  E  E  E     E  E  E  E  E  E  E  E   
-------------------------|-------------------------|--------------------------|
-------------------------|-------------------------|--------------------------|
-------------------------|--7----7--7--7--7--7--7--|--7--7--7--7--7--7--7--7--|
--7----7--7--7--7--7--7--|--7----7--7--7--7--7--7--|--7--7--7--7--7--7--7--7--|
--7----7--7--7--7--7--7--|--5----5--5--5--5--5--5--|--5--5--5--5--5--5--5--5--|
--5----5--5--5--5--5--5--|-------------------------|--------------------------|


  Q    E  E  E  E  E  E     Q    E  E  E  E  E  E     Q    E  E  E  E  E  E   
-------------------------|-------------------------|-------------------------|
-------------------------|-------------------------|-------------------------|
-------------------------|-------------------------|--7----7--7--7--7--7--7--|
--5----5--5--5--5--5--5--|--7----7--7--7--7--7--7--|--7----7--7--7--7--7--7--|
--5----5--5--5--5--5--5--|--7----7--7--7--7--7--7--|--5----5--5--5--5--5--5--|
--3----3--3--3--3--3--3--|--5----5--5--5--5--5--5--|-------------------------|


  E  E  E  E  E  E  E  E     E  E  E  E  E  E  E  E     Q    E  E  E  E  E  E   
--------------------------|--------------------------|-------------------------|
--------------------------|--------------------------|-------------------------|
--7--7--7--7--7--7--7--7--|--------------------------|--5----5--5--5--5--5--5--|
--7--7--7--7--7--7--7--7--|--------5--5--5--5--5--5--|--5----5--5--5--5--5--5--|
--5--5--5--5--5--5--5--5--|--------5--5--5--5--5--5--|--3----3--3--3--3--3--3--|
--------------------------|--------3--3--3--3--3--3--|-------------------------|


  Q    E  E  E  E  E  E     Q    Q    Q    Q       H        H              H        H            
-------------------------|----------------------|-----------------------|-----------------------|
-------------------------|----------------------|-----------------------|-----------------------|
-------------------------|--7----5--------------|-----------------------|-----------------------|
--7----7--7--7--7--7--7--|--7----5----8----7----|--5--------5pbr--------|--3--------3pbr--------|
--7----7--7--7--7--7--7--|--5----3----8----7----|--5--------------------|--3--------------------|
--5----5--5--5--5--5--5--|------------6----5----|--3--------------------|--1--------------------|


  W                   W                   W                   W                                 
-------------------|-------------------|-------------------|-------------------|-------|-------|
-------------------|-------------------|-------------------|-------------------|-------|-------|
-------------------|-------------------|-------------------|-------------------|-------|-------|
--2----------------|--L----------------|--4----------------|--L----------------|-------|-------|
--2----------------|--L----------------|--4----------------|--L----------------|-------|-------|
--0----------------|--L----------------|--2----------------|--L----------------|-------|-------|


  E  E  E  E  E  E  E  E     E  E  E  E  E  E  E  E     E  E  E  E  E  E  E  E   
--------------------------|--------------------------|--------------------------|
--------------------------|--------------------------|--------------------------|
--------------------------|--------------------------|--4--4--4--4--4--4--4--4--|
--5--5--5--5--5--5--5--5--|--7--7--7--7--7--7--7--7--|--4--4--4--4--4--4--4--4--|
--5--5--5--5--5--5--5--5--|--7--7--7--7--7--7--7--7--|--2--2--2--2--2--2--2--2--|
--3--3--3--3--3--3--3--3--|--5--5--5--5--5--5--5--5--|--------------------------|


  E  E  E  E  E  E  E  E     E  E  E  E  E  E  E  E     E  E  E  E  E  E  E  E   
--------------------------|--------------------------|--------------------------|
--------------------------|--------------------------|--------------------------|
--------------------------|--------------------------|--------------------------|
--6--6--6--6--6--6--6--6--|--5--5--5--5--5--5--5--5--|--7--7--7--7--7--7--7--7--|
--6--6--6--6--6--6--6--6--|--5--5--5--5--5--5--5--5--|--7--7--7--7--7--7--7--7--|
--4--4--4--4--4--4--4--4--|--3--3--3--3--3--3--3--3--|--5--5--5--5--5--5--5--5--|


        >        >           >        >        >                                 
  E  E  E  E  E  E  E  E     E  E  E  E  E  E  E  E     E  E  E  E  E  E  E  E   
--------------------------|--------------------------|--------------------------|
--------------------------|--------------------------|--------------------------|
--4--4--4--4--4--4--4--4--|--4--4--4--4--4--4--4--4--|--------------------------|
--4--4--4--4--4--4--4--4--|--4--4--4--4--4--4--4--4--|--5--5--5--5--5--5--5--5--|
--2--2--2--2--2--2--2--2--|--2--2--2--2--2--2--2--2--|--5--5--5--5--5--5--5--5--|
--------------------------|--------------------------|--3--3--3--3--3--3--3--3--|


  E  E  E  E  E  E  E  E     E  E  E  E  E  E  E  E     E  E  E  E  E  E  E  E   
--------------------------|--------------------------|--------------------------|
--------------------------|--------------------------|--------------------------|
--------------------------|--4--4--4--4--4--4--4--4--|--------------------------|
--7--7--7--7--7--7--7--7--|--4--4--4--4--4--4--4--4--|--6--6--6--6--6--6--6--6--|
--7--7--7--7--7--7--7--7--|--2--2--2--2--2--2--2--2--|--6--6--6--6--6--6--6--6--|
--5--5--5--5--5--5--5--5--|--------------------------|--4--4--4--4--4--4--4--4--|


                                                              >        >         
  E  E  E  E  E  E  E  E     E  E  E  E  E  E  E  E     E  E  E  E  E  E  E  E   
--------------------------|--------------------------|--------------------------|
--------------------------|--------------------------|--------------------------|
--------------------------|--------------------------|--4--4--4--4--4--4--4--4--|
--5--5--5--5--5--5--5--5--|--7--7--7--7--7--7--7--7--|--4--4--4--4--4--4--4--4--|
--5--5--5--5--5--5--5--5--|--7--7--7--7--7--7--7--7--|--2--2--2--2--2--2--2--2--|
--3--3--3--3--3--3--3--3--|--5--5--5--5--5--5--5--5--|--------------------------|


  >        >        >                                                            
  E  E  E  E  E  E  E  E     E  E  E  E  E  E  E  E     E  E  E  E  E  E  E  E   
--------------------------|--------------------------|--------------------------|
--------------------------|--------------------------|--------------------------|
--4--4--4--4--4--4--4--4--|--------------------------|--------------------------|
--4--4--4--4--4--4--4--4--|--5--5--5--5--5--5--5--5--|--7--7--7--7--7--7--7--7--|
--2--2--2--2--2--2--2--2--|--5--5--5--5--5--5--5--5--|--7--7--7--7--7--7--7--7--|
--------------------------|--3--3--3--3--3--3--3--3--|--5--5--5--5--5--5--5--5--|


  E  E  E  E  E  E  E  E     E  E  E  E  E  E  E  E     E  E  E  E  E  E  E  E   
--------------------------|--------------------------|--------------------------|
--------------------------|--------------------------|--------------------------|
--4--4--4--4--4--4--4--4--|--------------------------|--------------------------|
--4--4--4--4--4--4--4--4--|--6--6--6--6--6--6--6--6--|--5--5--5--5--5--5--5--5--|
--2--2--2--2--2--2--2--2--|--6--6--6--6--6--6--6--6--|--5--5--5--5--5--5--5--5--|
--------------------------|--4--4--4--4--4--4--4--4--|--3--3--3--3--3--3--3--3--|


                                   >        >           >        >        >      
  E  E  E  E  E  E  E  E     E  E  E  E  E  E  E  E     E  E  E  E  E  E  E  E   
--------------------------|--------------------------|--------------------------|
--------------------------|--------------------------|--------------------------|
--------------------------|--4--4--4--4--4--4--4--4--|--4--4--4--4--4--4--4--4--|
--7--7--7--7--7--7--7--7--|--4--4--4--4--4--4--4--4--|--4--4--4--4--4--4--4--4--|
--7--7--7--7--7--7--7--7--|--2--2--2--2--2--2--2--2--|--2--2--2--2--2--2--2--2--|
--5--5--5--5--5--5--5--5--|--------------------------|--------------------------|


  E  E  E  E  E  E  E  E     E  E  E  E  E  E  E  E     E  E  E  E  E  E  E  E   
--------------------------|--------------------------|--------------------------|
--------------------------|--------------------------|--------------------------|
--------------------------|--------------------------|--4--4--4--4--4--4--4--4--|
--5--5--5--5--5--5--5--5--|--7--7--7--7--7--7--7--7--|--4--4--4--4--4--4--4--4--|
--5--5--5--5--5--5--5--5--|--7--7--7--7--7--7--7--7--|--2--2--2--2--2--2--2--2--|
--3--3--3--3--3--3--3--3--|--5--5--5--5--5--5--5--5--|--------------------------|


  E  E  E  E  E  E  E  E     E  E  E  E  E  E  E  E     E  E  E  E  E  E  E  E   
--------------------------|--------------------------|--------------------------|
--------------------------|--------------------------|--------------------------|
--------------------------|--------------------------|--------------------------|
--6--6--6--6--6--6--6--6--|--5--5--5--5--5--5--5--5--|--7--7--7--7--7--7--7--7--|
--6--6--6--6--6--6--6--6--|--5--5--5--5--5--5--5--5--|--7--7--7--7--7--7--7--7--|
--4--4--4--4--4--4--4--4--|--3--3--3--3--3--3--3--3--|--5--5--5--5--5--5--5--5--|


        >        >           >        >        >                                 
  E  E  E  E  E  E  E  E     E  E  E  E  E  E  E  E     E  E  E  E  E  E  E  E   
--------------------------|--------------------------|--------------------------|
--------------------------|--------------------------|--------------------------|
--4--4--4--4--4--4--4--4--|--4--4--4--4--4--4--4--4--|--------------------------|
--4--4--4--4--4--4--4--4--|--4--4--4--4--4--4--4--4--|--5--5--5--5--5--5--5--5--|
--2--2--2--2--2--2--2--2--|--2--2--2--2--2--2--2--2--|--5--5--5--5--5--5--5--5--|
--------------------------|--------------------------|--3--3--3--3--3--3--3--3--|


  E  E  E  E  E  E  E  E     E  E  E  E  E  E  E  E     E  E  E  E  E  E  E  E   
--------------------------|--------------------------|--------------------------|
--------------------------|--------------------------|--------------------------|
--------------------------|--4--4--4--4--4--4--4--4--|--------------------------|
--7--7--7--7--7--7--7--7--|--4--4--4--4--4--4--4--4--|--6--6--6--6--6--6--6--6--|
--7--7--7--7--7--7--7--7--|--2--2--2--2--2--2--2--2--|--6--6--6--6--6--6--6--6--|
--5--5--5--5--5--5--5--5--|--------------------------|--4--4--4--4--4--4--4--4--|


  W                   W                   W                   W                   W                 
-------------------|-------------------|-------------------|-------------------|-------------------|
-------------------|-------------------|-------------------|-------------------|-------------------|
-------------------|-------------------|--4----------------|--L----------------|-------------------|
--5----------------|--7----------------|--4----------------|--L----------------|--5----------------|
--5----------------|--7----------------|--2----------------|--L----------------|--5----------------|
--3----------------|--5----------------|-------------------|-------------------|--3----------------|


  W                   W                   W                   W                   W                 
-------------------|-------------------|-------------------|-------------------|-------------------|
-------------------|-------------------|-------------------|-------------------|-------------------|
-------------------|-------------------|-------------------|--4----------------|--L----------------|
--L----------------|--7----------------|--L----------------|--4----------------|--L----------------|
--L----------------|--7----------------|--L----------------|--2----------------|--L----------------|
--L----------------|--5----------------|--L----------------|-------------------|-------------------|


  W                   W                   W                   W                   W                 
-------------------|-------------------|-------------------|-------------------|-------------------|
-------------------|-------------------|-------------------|-------------------|-------------------|
-------------------|-------------------|-------------------|-------------------|-------------------|
--6----------------|--L----------------|--5----------------|--L----------------|--7----------------|
--6----------------|--L----------------|--5----------------|--L----------------|--7----------------|
--4----------------|--L----------------|--3----------------|--L----------------|--5----------------|


  W                   W                   W                   Q    E  Q    E  Q     
-------------------|-------------------|-------------------|-----------------------|
-------------------|-------------------|-------------------|-----------------------|
-------------------|--4----------------|--L----------------|--4-------4-------4----|
--L----------------|--4----------------|--L----------------|--4-------4-------4----|
--L----------------|--2----------------|--L----------------|--2-------2-------2----|
--L----------------|-------------------|-------------------|-----------------------|


  E  Q    E  Q    Q                
------------------------||-------||
------------------------||-------||
-----4-------4----4----*||-------||
-----4-------4----4----*||-------||
-----2-------2----2-----||-------||
------------------------||-------||


Guitar 3: 
                                         
     W                   W                   W                   W                 
E||-------------------|-------------------|-------------------|-------------------|
B||-------------------|-------------------|-------------------|-------------------|
G||-------------------|-------------------|-------------------|-------------------|
D||-------------------|-------------------|-------------------|-------------------|
A||-------------------|-------------------|-------------------|-------------------|
E||-------------------|-------------------|-------------------|-------------------|


  W                   W                   W                   W                 
-------------------|-------------------|-------------------|-------------------|
-------------------|-------------------|-------------------|-------------------|
-------------------|-------------------|-------------------|-------------------|
-------------------|-------------------|-------------------|-------------------|
-------------------|-------------------|-------------------|-------------------|
-------------------|-------------------|-------------------|-------------------|


  E  E  E  H           E     W                   E  E  E  H           E     W                 
--------------------------|-------------------|--------------------------|-------------------|
--------------------------|-------------------|--------------------------|-------------------|
--------------------------|-------------------|--------------------------|-------------------|
-----------5pbr--------L--|--L----------------|-----------7pbr--------L--|--L----------------|
--------------------------|-------------------|--------------------------|-------------------|
--x--x--x-----------------|-------------------|--x--x--x-----------------|-------------------|


  E  E  E  H           E     W                                                                   
--------------------------|-------------------|-------|-------||--------|-------|-------|-------|
--------------------------|-------------------|-------|-------||--------|-------|-------|-------|
-----------4pbr--------L--|--L----------------|-------|-------||*-------|-------|-------|-------|
--------------------------|-------------------|-------|-------||*-------|-------|-------|-------|
--x--x--x-----------------|-------------------|-------|-------||--------|-------|-------|-------|
--------------------------|-------------------|-------|-------||--------|-------|-------|-------|


-------|-------|-------|-------|-------|-------|-------|-------|-------|-------|-------|-------|
-------|-------|-------|-------|-------|-------|-------|-------|-------|-------|-------|-------|
-------|-------|-------|-------|-------|-------|-------|-------|-------|-------|-------|-------|
-------|-------|-------|-------|-------|-------|-------|-------|-------|-------|-------|-------|
-------|-------|-------|-------|-------|-------|-------|-------|-------|-------|-------|-------|
-------|-------|-------|-------|-------|-------|-------|-------|-------|-------|-------|-------|


                                  H        E   E   E  E       Q    E   Q     E  E   E   
-------|-------|-------|-------|----------------------9s--|--10----9-------------------|
-------|-------|-------|-------|------------------12------|-----------12---------------|
-------|-------|-------|-------|--------------11----------|-----------------11--9------|
-------|-------|-------|-------|--------------------------|------------------------12--|
-------|-------|-------|-------|--------------------------|----------------------------|
-------|-------|-------|-------|--------------------------|----------------------------|


   Q     E  Q     E   Q          Q    Q    Q    Q        W                    W                 
---------------------------|-------------------------|--------------------|--------------------|
---------------------------|--9g10----8--------------|--------------------|--------------------|
------------9----11s--9----|---------------7----9----|--11----------------|---L----------------|
--11----12-----------------|-------------------------|--------------------|--------------------|
---------------------------|-------------------------|--------------------|--------------------|
---------------------------|-------------------------|--------------------|--------------------|


                  H        E   E   E  E       Q    E   Q     E  E   E      Q     E  Q     E  Q     
-------|-------|----------------------9s--|--10----9-------------------|--------------------------|
-------|-------|------------------12------|-----------12---------------|--------------------------|
-------|-------|--------------11----------|-----------------11--9------|------------9----11--9----|
-------|-------|--------------------------|------------------------12--|--11----12----------------|
-------|-------|--------------------------|----------------------------|--------------------------|
-------|-------|--------------------------|----------------------------|--------------------------|


     Q    Q     Q     Q        W                       W                         
---------------12----14----|-----------------------|--------------------|-------|
--9g10----8----------------|--15pbr----------------|---L----------------|-------|
---------------------------|-----------------------|--------------------|-------|
---------------------------|-----------------------|--------------------|-------|
---------------------------|-----------------------|--------------------|-------|
---------------------------|-----------------------|--------------------|-------|


  E   E   E  E    E   E   E   E      Q    E   Q    E   E    E      E  E  Q     Q     Q     
-------------9s--10s--9----------|-----------------------------|--------------------------|
---------12--------------12--10--|-----------10-------10s--11--|--10----------------------|
-----11--------------------------|--12-------------------------|---------9----10----12----|
---------------------------------|-----------------------------|--------------------------|
---------------------------------|-----------------------------|--------------------------|
---------------------------------|-----------------------------|--------------------------|


   Q    E   Q    E     Q        Q    Q    E   E  E   E      E  E   S  S  S Q     Q     S  
----------------------------|---------------------------|--------------------------------|
--------------------8g10----|---------------------------|--------------------------------|
--10-------12---------------|--------------------9--10--|--12-----10-12-10-9-------------|
----------------------------|--12------------12---------|-----------------------12----11-|
----------------------------|---------------------------|--------------------------------|
----------------------------|---------------------------|--------------------------------|


  Q    E  E   E  E   E   E     Q    E   Q     E  Q        Q    E   Q    E   Q     
----------------------------|-------------------------|--------------------------|
-------------11-----10---L--|--8----L------------8----|--10-------11-------13----|
----------------------------|----------10-----L-------|--------------------------|
-------7--------------------|-------------------------|--------------------------|
----------------------------|-------------------------|--------------------------|
----------------------------|-------------------------|--------------------------|


  Q     Q    E   E   E   E       E   E   E  E   E   E   Q        E   Q     E   Q     E   E   
-------10-------10--12--13s--|--15---L--13-----12---L--------|----------------------10---L--|
-----------------------------|-------------------------15----|--13---L----10---L------------|
-----------------------------|-------------------------------|------------------------------|
-----------------------------|-------------------------------|------------------------------|
-----------------------------|-------------------------------|------------------------------|
-----------------------------|-------------------------------|------------------------------|


   E   E  Q     Q     Q        H         H            H         H            H         H         
---L---L--8----------------|----------------------|------------10--------|--13------------------|
---------------11----10----|------------11--------|--10------------------|------------15--------|
---------------------------|--12------------------|----------------------|----------------------|
---------------------------|----------------------|----------------------|----------------------|
---------------------------|----------------------|----------------------|----------------------|
---------------------------|----------------------|----------------------|----------------------|


   H         H            W                    W                 
--15------------------|--------------------|--------------------|
------------15--------|--17----------------|---L----------------|
----------------------|--------------------|--------------------|
----------------------|--------------------|--------------------|
----------------------|--------------------|--------------------|
----------------------|--------------------|--------------------|


   Q        E   Q        E   Q           E   Q        E   E   E  E   E   
--17pbr-----L--17pbr-----L--17pbr----|---L--17pbr-----------------------|
-------------------------------------|---------------10-----------------|
-------------------------------------|-------------------12--11--9------|
-------------------------------------|------------------------------12--|
-------------------------------------|----------------------------------|
-------------------------------------|----------------------------------|


  Q    E   E   E   E  E   E      Q    E   E   E   E  E   E      Q     E   Q     E   E   E   
-----------------------------|------------------------------|------------------------------|
----------10-----------------|-----------10-----------------|------------------------------|
--------------12--11--9------|---------------12--11--9------|----------------------14---L--|
--9----------------------12--|--11----------------------12--|--11-----L--12-----L----------|
-----------------------------|------------------------------|------------------------------|
-----------------------------|------------------------------|------------------------------|


   Q     E   Q     E   Q        Q    E   Q    E  Q        Q    E   Q    E  Q     
----------------------------|-------------------------|-------------------------|
--14-----L------------------|--12---------------------|-------------------------|
------------14-----L--11----|-----------11------------|--------------------9----|
----------------------------|--------------------9----|--11-------12------------|
----------------------------|-------------------------|-------------------------|
----------------------------|-------------------------|-------------------------|


   W                       E  Q     E   E   E  E   E     Q    E   E   E   E  E   E   
-----------------------|------------------------------|-----------------------------|
-----------------------|-----------10-----------------|----------10-----------------|
--11pbr----------------|---L-----------12--11--9------|--------------12--11--9------|
-----------------------|--------------------------12--|--9----------------------12--|
-----------------------|------------------------------|-----------------------------|
-----------------------|------------------------------|-----------------------------|


   Q    E   E   E   E  E   E      Q     E   Q     E   E   E      Q     E   Q     E   Q     
------------------------------|------------------------------|----------------------------|
-----------10-----------------|------------------------------|--14-----L------------------|
---------------12--11--9------|----------------------14---L--|------------14-----L--11----|
--11----------------------12--|--11-----L--12-----L----------|----------------------------|
------------------------------|------------------------------|----------------------------|
------------------------------|------------------------------|----------------------------|


   Q    E   Q    E  Q        Q    E   Q    E  Q        W                    
-------------------------|-------------------------|-----------------------|
--12---------------------|-------------------------|-----------------------|
-----------11------------|--------------------9----|--11pbr----------------|
--------------------9----|--11-------12------------|-----------------------|
-------------------------|-------------------------|-----------------------|
-------------------------|-------------------------|-----------------------|


   E  Q     E   E   E  E   E     Q    E   E   E   E  E   E      Q    E   E   E   E  E   E   
------------------------------|-----------------------------|------------------------------|
-----------10-----------------|----------10-----------------|-----------10-----------------|
---L-----------12--11--9------|--------------12--11--9------|---------------12--11--9------|
--------------------------12--|--9----------------------12--|--11----------------------12--|
------------------------------|-----------------------------|------------------------------|
------------------------------|-----------------------------|------------------------------|


   Q     E   Q     E   E   E      Q     E   Q     E   Q        Q     E   Q     E   Q     
------------------------------|----------------------------|----------------------------|
------------------------------|--14-----L------------------|--12-----L---L-----L---L----|
----------------------14---L--|------------14-----L--11----|------------11--------------|
--11-----L--12-----L----------|----------------------------|-----------------------9----|
------------------------------|----------------------------|----------------------------|
------------------------------|----------------------------|----------------------------|


   Q     E   Q     E   Q        W                       E  Q     E   E   E  E   E   
----------------------------|-----------------------|------------------------------|
---L-----L---L-----L---L----|---L-------------------|---L-------10-----------------|
-----------------------9----|-----------------------|---------------12--11--9------|
--11--------12--------------|--12pbr----------------|--------------------------12--|
----------------------------|-----------------------|------------------------------|
----------------------------|-----------------------|------------------------------|


  Q    E   E   E   E  E   E      Q    E   E   E   E  E   E      Q     E   Q     E   E   E   
-----------------------------|------------------------------|------------------------------|
----------10-----------------|-----------10-----------------|------------------------------|
--------------12--11--9------|---------------12--11--9------|----------------------14---L--|
--9----------------------12--|--11----------------------12--|--11-----L--12-----L----------|
-----------------------------|------------------------------|------------------------------|
-----------------------------|------------------------------|------------------------------|


   Q     E   Q     E   Q        Q     E   Q     E   Q        Q    E   Q     E   E   E   
----------------------------|----------------------------|-----------------------------|
--14-----L------------------|--12-----L---L-----L---L----|-----------------------------|
------------14-----L--11----|------------11--------------|-----------14----12--14--12--|
----------------------------|-----------------------9----|--11-------------------------|
----------------------------|----------------------------|-----------------------------|
----------------------------|----------------------------|-----------------------------|


   W                       E  Q     E   E   E  E   E     Q    E   E   E   E  E   E   
-----------------------|------------------------------|-----------------------------|
-----------------------|-----------10-----------------|----------10-----------------|
--11pbr----------------|---L-----------12--11--9------|--------------12--11--9------|
-----------------------|--------------------------12--|--9----------------------12--|
-----------------------|------------------------------|-----------------------------|
-----------------------|------------------------------|-----------------------------|


   Q    E   E   E   E  E   E      Q     E   Q     E   E   E      Q     E   Q     E   E   E   
------------------------------|------------------------------|------------------12--11--12--|
-----------10-----------------|------------------------------|--14-----L--------------------|
---------------12--11--9------|----------------------14---L--|------------14----------------|
--11----------------------12--|--11-----L--12-----L----------|------------------------------|
------------------------------|------------------------------|------------------------------|
------------------------------|------------------------------|------------------------------|


   Q     E   Q     E   Q       Q    S  S E   Q     Q        W                    
--10-----L------------10----|--9----9-10-9--------------|-----------------------|
------------12-----L--------|---------------10----------|--12pbr----------------|
----------------------------|---------------------11----|-----------------------|
----------------------------|---------------------------|-----------------------|
----------------------------|---------------------------|-----------------------|
----------------------------|---------------------------|-----------------------|


  Solo                                                                                  
  E     E   E   E   E   E   E   E      W                   Q    E   Q       E   E   E   
-------------------10------10--12--|--14----------------|----------14br-----L--12------|
-------11--12--14------14---L---L--|---L----------------|--------------------------15--|
-----------------------------------|--------------------|------------------------------|
-----------------------------------|--------------------|------------------------------|
-----------------------------------|--------------------|------------------------------|
-----------------------------------|--------------------|------------------------------|


   Q    E   Q    E   Q        Q    E   Q    E   Q        Q    E   Q    E   Q     
--------------------12----|--------------------------|--------------------------|
--14-------15-------------|--14----------------------|-----------14-------------|
--------------------------|-----------14-------------|--------------------14----|
--------------------------|--------------------14----|--16----------------------|
--------------------------|--------------------------|--------------------------|
--------------------------|--------------------------|--------------------------|


   Q    E   Q    E   Q        Q    E   Q    E   Q          S Q    H         S  S  S  
--------------------------|--17-------16----------------|---------------------------|
-----------17-------14----|--------------------14pbr----|---------------------------|
--16----------------------|-----------------------------|------------------14-12-11-|
--------------------------|-----------------------------|---------------------------|
--------------------------|-----------------------------|---------------------------|
--------------------------|-----------------------------|---------------------------|


   W                    Q    E   Q    E   Q        W                       Q    E   Q    E   Q     
--------------------|--------------------------|-----------------------|--------------------------|
--------------------|--------------------------|-----------------------|--15-------14-------------|
--12----------------|--12-------14-------16----|--14pbr----------------|--------------------14----|
--------------------|--------------------------|-----------------------|--------------------------|
--------------------|--------------------------|-----------------------|--------------------------|
--------------------|--------------------------|-----------------------|--------------------------|


   W                      S H         S  S  S  S  S  S  S     W                              
-----------------------|-------------------------------18-|--19pbr----------------|--------||
-----------------------|----------------------------------|-----------------------|--------||
--16pbr----------------|----------------------14-15-16----|-----------------------|-------*||
-----------------------|-------------14-15-16-------------|-----------------------|-------*||
-----------------------|----------------------------------|-----------------------|--------||
-----------------------|----------------------------------|-----------------------|--------||


-------||
-------||
-------||
-------||
-------||
-------||




Duration Legend
---------------
W - whole
H - half
Q - quarter
E - 8th
S - 16th
T - 32nd
X - 64th
. - note dotted
|-n-|  - n-tuplets


Tablature Legend
----------------
L - tied note
x - dead note
g - grace note
(n) - ghost note
> - accentuded note
NH - natural harmonic
AH - artificial harmonic
TH - tapped harmonic
SH - semi harmonic
PH - pitch harmonic
h - hammer on
p - pull off
b - bend
br - bendRelease
pb - preBend
pbr - preBendRelease
brb - bendReleaseBend
\n/ - tremolo bar dip
\n - tremolo bar dive
-/n - tremolo bar Release up
/n\ - tremolo bar inverted dip
/n - tremolo bar return
-\n - tremolo bar Release down
S - shift slide
s - legato slide
/ -  slide into from below or out of upwards
\ -  slide into from above or out of downwards
~ - vibrato
W - wide vibrato
tr - trill
TP - tremolo picking
T - tapping
S - slap
P - pop
< - fade in
^ - brush up
v - brush down

Login or Register to remove this ad.