Ads

Eikyuu no Nagisa (Umi Monogatari) Guitar Tab

Submitted: Oct 16, 2013 by tomorning (Last updated: Oct 17, 2013)

5
Average: 5 (2 votes)
Download | Listen
Game: Umi Monogatari
Composer(s): Ken Muramatsu
Style: Arrangement, Fingerstyle

AutoScroll: Slow | Medium | Fast
                                   Eikyuu No Nagisa
                                     ( 永久の渚 )
                                   - gt solo arrange -
                              ~ from anime "Umimonogatari" ~ 

Music by Ken Muramatsu (村松 健)
Arranged by to*morning

Tempo = 72

E |-----------------------------|--------------3-------------|--------------------------|--------------3-------------|
B |-----------------------------|-----------3-----3----------|-----------------3h4--3---|-----------3-----3----------|
G |-----------0--5--------^3L---|--------3-----------3-------|--5--------0--5-----------|--------3-----------3-------|
D |--------3-----------3--^5L---|-----5----------------------|--------3-----------------|-----5----------------------|
A |-----6-----------6-----^6L---|----------------------------|-----6----------------6---|----------------------------|
E |--4--------------------------|----------------------------|--4-----------------------|----------------------------|




|-----------------------------|--------------3-------------|---------------------------|-----------------------3----||
|-----------------------------|-----------3----------------|------------------3h4--3---|--------------------1-------||
|--5--------0--5--------^3L---|--------3-------------------|--^5--------0--5-----------|--------3-------------------||
|--------3-----------3--^5L---|-----5----------------------|---------3-----------------|-----5----------------------||
|-----6-----------6-----^6L---|----------------------------|------6----------------6---|----------------------------||
|--4--------------------------|----------------------------|--^4-----------------------|----------------------------||




|--3-------------------------|-----------^3-----------6----|--6-----------------1h3--1L---|------------------------10---|
|--------------------4--3L---|-----------^3--------3-------|------------------------------|--------1--^0--------8-------|
|-----------5--------0-------|--------3--------------------|--------0--5------------------|-----------^0----------------|
|--------3--------3----------|-----5-----------------------|------------------------------|-----3-----------------------|
|-----6----------------------|--6--------------------------|-----6------------------------|-----------------------------|
|--4-------------------------|-----------------------------|--4---------------------------|--3--------------------------|


                                                                                                        fermete
|--10----------------6--3L---|--------------------6--8----|----------------------------|--3----1-------------------3---||
|----------------------------|--------2--2L---------------|--4-----------------6--4----|---------4-----^4-------1------||
|-----------8----------------|--------1--0L---------------|-----------3----------------|---------------^1--------------||
|--------8-------------------|-----3----------------------|-----1s-3--3----------------|------------1------------------||
|-----10---------------------|--1-------------------------|----------------------------|---------3---------------------||
|--8-------------------------|----------------------------|--4--------3----------------|-----1-------------------------||



|--3-------------------------|-----------^3-----------6----|--6-----------1h3--1L---|------------------------8----|
|--------------------4--3L---|-----------^3--------3-------|------------------------|--------1--^0--------4-------|
|-----------5--------0-------|--------3--------------------|--------0--5------------|-----------^0----------------|
|--------3--------3----------|-----5-----------------------|------------------------|-----3-----------------------|
|-----6----------------------|--6--------------------------|-----6------------------|-----------------------------|
|--4-------------------------|-----------------------------|--4---------------------|--3--------------------------|



|--8-----------------4>-6>---|--^8>----8>-6>----------6L---|---------------------3-4--|--6>----6>-4-----3-----4L---|
|----------------------------|------------6-----9----------|--------------------------|--6-----6--5----------------|
|--------0--5--------5--7----|--^8-----8--7----------------|--------0--2--3-----------|--5-----5--3----------------|
|----------------------------|------6----------------------|-----0--------------------|----------------------------|
|-----6----------------------|--^8-------------------------|--------------------------|----------------------------|
|--4-------------------------|------------6----------------|--3-----------------------|----------------------------|



|--------------------^4L------|--(4)------------|-----------------------3----||
|--------------------^1L------|--(1)------------|--------------------1-------||
|-----------0--1--3--^1L------|--(1)------------|----------------------------||
|--------3--------------------|-----------------|----------------------------||
|-----3--------------^1L------|--(1)------------|----------------------------||
|--1--------------------------|-----------------|----------------------------||



|--3-------------------------|-----------^3-----------6----|--6---------------1h3--1L---|-----------------------10---|
|--------------------4--3L---|-----------^3--------3-------|----------------------------|--------1--0--------8-------|
|-----------5--------0-------|--------3--------------------|--------0--5----------------|-----------0----------------|
|--------3--------3----------|-----5-----------------------|----------------------------|-----3----------------------|
|-----6----------------------|--6--------------------------|-----6----------------------|----------------------------|
|--4-------------------------|-----------------------------|--4-------------------------|--3-------------------------|



|--10------------------------|----------------13-------2h3------|----------------------------|--------6.----------8--10---|
|--------------------16-15L--|-------16-------------4--------6--|--4-----------------4-------|--6>-------4----------------|
|-----------8----------------|------------13--12----------------|-----------0--5-------------|--3--------5----------------|
|--------8-------------------|-------15-------------------------|-----1s-3-------------------|--3--------5----------------|
|-----10---------------------|--13------------------------------|----------------------------|-----------3----------------|
|--8-------------------------|----------------------------------|--4-------------------------|--3-------------------------|


                               rit............................................fermete
|--11----8--4----------------|--------4-------------------|----------------|----------||
|----------------------------|--1--4-----4----------------|--6--4--3-------|--4-------||
|--------------------0--1----|-----------1----------------|----------------|--3-------||
|-----------------3----------|----------------------------|--6--5--3-------|--5-------||
|--------------3-------------|-----------1----------------|----------------|--6-------||
|-----------1----------------|----------------------------|----------------|----------||fin






Legend
L - tied note
x - dead note
h - hammer on/pull off
b - bend
s - slide
~ - vibrato
g - ghost note
> - accentuated note
t - trill
M - palm mute
. - staccato
P - popping (bass)
S - slapping (bass)
+ - tapping
W - wide vibrato
< - fade in
w - whammy bar
= - tremolo picking
v - brush up
^ - brush down
V - pick stroke up
n - pick stroke down

Login or Register to remove this ad.

3 comments on Eikyuu no Nagisa

Fixed files

legate Fixed Files & TAB

11 bars -> slide change
24-25 bars -> legate note

Updated

Updated

thanks,moderator

thanks,moderator