Ads

Boy Meets Girl (Earthbound) Guitar Tab

Submitted: Jul 20, 2010 by K0HIJIN (Last updated: Jan 26, 2011)

5
Average: 5 (4 votes)
Download | Listen
Game: Earthbound
Composer(s): Hirokazu Tanaka, Keiichi Suzuki
Style: Transcription

AutoScroll: Slow | Medium | Fast
Boy Meets Girl (Twoson's Theme)
Earthbound (Mother 2)
Composed by Keiichi Suzuki
Tabbed by K0HIJIN (Johnathan Corkery)
7/20/10



    Q   Q   Q   Q   Q   Q   Q   Q   Q   Q   Q   Q   Q   Q   Q   Q   E  E  Q    Q    E  E
E||-3---3---3---3-|-3---3---3---3-|-3---3---3---3-|-3---3---3---3-|----------------------|
B||-3---3---3---3-|-3---3---3---3-|-3---3---3---3-|-3---3---3---3-|----------------------|
G||-4---4---4---4-|-5---5---2---2-|-4---4---4---4-|-5---5---2---2-|------------2----4--0-|
D||---------------|---------------|---------------|---------------|-------0--------------|
A||---------------|---------------|---------------|---------------|-2--2-----------------|
D||---------------|---------------|---------------|---------------|----------------------|


                                                     | - 3 - |
    E  E  Q    Q    E  E   E  E  Q    Q    E  E   E  Q   Q   Q
E||----------------------|----------------------|----------------|
B||----------------------|----------------------|----------------|
G||------------4----5--7-|----------------------|----------------|
D||-------2--------------|----------------------|-0--------------|
A||-3--3-----------------|-------0----2----3--5-|----0-----------|
D||----------------------|-5--5-----------------|--------4---0---|



    Q   Q   Q   E E   H.          Q   Q   Q   Q   E E   H.           Q   Q   Q   E  E  Q
E||-----3---2---3---|---------------|-----------------|----------------|------------------|
B||-3-------------3-|-L-----------1-|-0---5---3-------|----------------|-----0------------|
G||-4-------------2-|---------------|-0-----------5-4-|-L--------------|---------2--0--2--|
D||-5-------------4-|-L-------------|-2-------------4-|-L------------7-|-5-------4--------|
A||-----------------|-L-------------|---------------6-|-L--------------|-7----------------|
D||-----------------|---------------|-----------------|----------------|------------------|

    
    Q   Q   Q   Q   Q   Q   E  E  Q     Q    E  E  H    
E||---------------|-------------------|------------------|
B||-0-----------3-|-----0-------------|---------0--------|
G||-0---0---2-----|-0-------2--0--2---|-0----2-----2-----|
D||-----2---4-----|-2-------4---------|-2----4-----4-----|
A||---------------|-------------------|------------5-----|
D||---------------|-------------------|------------------|


    Q   Q   Q   E E   H.          Q   Q   Q   Q   E E   H.           Q   Q    E  E  Q    E  E
E||-----3---2---3---|---------------|-----------------|----------------|-----------------------|
B||-3-------------3-|-L-----------1-|-0---5---3-------|----------------|-----------------------|
G||-4-------------2-|---------------|-0-----------5-4-|-L------------2-|-0----0--0--2----2--2--|
D||-5-------------4-|---------------|-2-------------4-|-L--------------|-2----------4----------|
A||-----------------|---------------|---------------6-|-L--------------|-----------------------|
D||-----------------|---------------|-----------------|----------------|-----------------------|
 
                                                                                  |-3-|
    Q   Q   Q   Q    Q    Q    E  E  Q    W            Q    E  E  Q    Q    Q.    S S S Q    Q
E||----------------|--------------------|------------|-0----2--0--2----3--|-5-----3-5p3-2----0--|
B||-0-----------3--|-0----3----1--0-----|-3----------|-0------------------|-5-------------------|
G||-0---0---2------|-0---------2-----2--|-4----------|-0------------------|-5-------------------|
D||-----2---4------|--------------------|-5----------|--------------------|---------------------|
A||----------------|--------------------|------------|--------------------|---------------------|
D||----------------|--------------------|------------|--------------------|---------------------|


 
    Q    E  E  Q    Q    Q    E  E  Q    Q   H.         E  E   H.         Q   
E||--------------------|-------------------|-----------------|--------------|
B||-3----3--5--3----1--|-0----0--1--0------|-0-------------0-|-2------------|
G||-2------------------|-0----------2----2-|-0----------2----|-2------------|
D||-4------------------|------------4------|-2---------------|-2----------2-|
A||--------------------|-------------------|-----------------|--------------|
D||--------------------|-------------------|-----------------|--------------|



    H    H      H    H     E E E E E E E E    H     H       W
E||-----------|----------|-----------------|-------------|-----------||
B||-----------|----------|-----------------|-------------|-----------||
G||-----------|----------|-----------------|--0----------|-----------||
D||-5----4----|-2----4---|-----------------|--0----------|-----------||
A||-5----5----|-5----5---|---------0-2-3-0-|--2----------|-----------||
D||-----------|----------|-0-2-4-0---------|--------0----|--5--------||
                                           ^                                            
                                           |
                                         (Repeat Full One time)
Login or Register to remove this ad.

1 comment on Boy Meets Girl

No comments or ratings?!

5

Thank you very much for this, sounds just like the original! :D