Title Screen (Tsumairo Shoujo) Guitar Tab

Submitted: Jan 30, 2018 by Ramza

0
Download | Listen
Game: Tsumairo Shoujo
Composer(s): Az-Mix
Style: Transcription

AutoScroll: Slow | Medium | Fast
Sweet Young Bride
Sweet Young Bride Title Screen Theme
Developer: Ammolite
Publisher: MangaGamer
Composers: Az-Mix
Date: 2018/01/24
Key: E

e---19--19--17--16-------------------------------------------------------------------
B-------------------17--17~------------17--17-------17--17----19--21--19--17---------
G------------------------------16--18-----------16----------------------------18--16~
D------------------------------------------------------------------------------------
A------------------------------------------------------------------------------------
E------------------------------------------------------------------------------------

   id recommend you to slide from 17 to 19 at this part, but it aint necessary
                                    \/
                                       
e------------------------------------19--17--16-------------------------
B---------------17~---19--21--17~----------------17------17~--16--17--19
G-----------16---------------------------------------16-----------------
D---18--19--------------------------------------------------------------
A-----------------------------------------------------------------------
E-----------------------------------------------------------------------

e---19--19--17--16------------------------------------------------16--17--16--17--19--21--19------------------------------16-----
B-------------------17--17~------------17--17-------17--17----19------------------------------17--17--17------17--17--19------17~
G------------------------------16--18-----------16--------------------------------------------------------16---------------------
D--------------------------------------------------------------------------------------------------------------------------------
A--------------------------------------------------------------------------------------------------------------------------------
E--------------------------------------------------------------------------------------------------------------------------------

e---------------------------16----
B---------------17--17--19--------
G-----------16------------------16
D---18--19------------------------
A---------------------------------
E---------------------------------


   fanfare chorus part

e------------------------------------------------------------------------------------------------------------------------
B------------------------------------------------------------------------------------------------------------------------
G--13--14--13--14--16--16--18--16~------------------------------------------------------------------------16--16--18--16~
D------------------------------------18--19--18--19--18--18--16--14~--------------14--16--18--19--18--19-----------------
A------------------------------------------------------------------------14--14------------------------------------------
E------------------------------------------------------------------------------------------------------------------------

e-------------------------------------------------------------------------------------------------------------------------------
B-------------------------------------------------------------------------------------------------------------------------------
G---------------------------------------------------------------------16--16--14------------------------------------------------
D--18--19--18--19---18--18--16--14~-----------14--16--18--19--18--19---------------18--16--14--13----------------------------14~ 
A-------------------------------------14--14-------------------------------------------------------14~-------------------14-----
E--------------------------------------------------------------------------------------------------------16--16--16--17---------

e------------------------------------------------------------------------------------------------------
B------------------------------------------------------------------------------------------------------
G---------------13--14--13----------13--14--13--14---16--16--18--16~----13--14--13--14--13--13---------
D---13--14--16--------------16--14--------------------------------------------------------------16--14~
A------------------------------------------------------------------------------------------------------
E------------------------------------------------------------------------------------------------------

e----------------------------------
B----------------------------------
G----------------------------------
D-----------------------14--13--14~
A---14--14----------14-------------
E-----------16--17-----------------
Login or Register to remove this ad.