Ads

Ima Koko (Tsuki ga Kirei) Guitar Tab

Submitted: Dec 29, 2017 by Ramza

5
Average: 5 (1 vote)
Download | Listen
Game: Tsuki ga Kirei
Composer(s): Takuro Iga
Style: Transcription

This song is also called Opening Theme

AutoScroll: Slow | Medium | Fast
Tsuki ga kirei
Tsuki ga kirei Opening 1- Ima koko
Composers: WEST GROUND, Kozo Murashita
Date: 28/12/2017


 KEY: E

 NANTO NAKU ATAMA NO NAKA DE, KIMI GA...

e--------------------------------------------------------------------------------
B-------------------7--9--7--------------------------------------7--9--7---------
G-----9--8--9----9-----------9--8--9~-----------------9--8--9-------------9--8--9
D--9-----------------------------------9--11--9~---9-----------------------------
A--------------------------------------------------------------------------------
E--------------------------------------------------------------------------------

 Electric Guitar

e------------------------------------------------------------------
B----------------7---------------7---------------7-9--10--9---7----
G--9--8--9---8-9---9--8--9---8-9---9--8--9---8-9----------------9-8
D------------------------------------------------------------------
A------------------------------------------------------------------
E------------------------------------------------------------------

e----------------------------------------------
B----------------7---------------7-------------
G--9--8--9---8-9---9--8--9---8-9---9-----------
D--------------------------------------9/11---9
A----------------------------------------------
E----------------------------------------------

 TOGIRE TOGIRE NO KAIWA DA NE...

e--------------------------------------------------------------------------------------------------
B-----------------7--7--9--7---------------------------------------7--7--9--7----------------------
G------9--8--9----------------9--8--9~------------------9--8--9----------------9--8--9~------------
D--9-9----------------------------------9--11--9~---9-9-----------------------------------9--11--9~
A--------------------------------------------------------------------------------------------------
E--------------------------------------------------------------------------------------------------


 ME GA ATTA SHUNKAN NI...

e------------------------------
B------------------------------
G--------9--8--9~------9--8--9~
D--9--9-------------9----------
A------------------------------
E------------------------------

 MATA NANIKA GA MUNE WO TSURANUITE YUKU... IMA

e-------------------------------------------------------------
B------9--7-----9--7-----9--7-----9--7------------------------
G------------9--------9--------9--------9--8----9--------9/11~
D--9-9--------------------------------------------------------
A-------------------------------------------------------------
E-------------------------------------------------------------

 Key shift from E to F

 CHORUS

e---------------------------------------------------------------------------
B---------------------------------------------------------------------------
G------17--17--17--------17--15--14---14--15--14~--15--14~--15--14~--12--10~
D--15--------------15-15----------------------------------------------------
A---------------------------------------------------------------------------
E---------------------------------------------------------------------------

e-------------------------------------------------------------------------
B-------------------------------------------------------------------------
G------17--17--17------17--15--14---12--15--14~--15--14~--15--14~--15--14~
D--15--------------15-----------------------------------------------------
A-------------------------------------------------------------------------
E-------------------------------------------------------------------------

e--------------------------------------------------------------------------------
B--------------------------------------------------------------------------------
G----------17--17--17---------17--15--14---12--15--14~--15--14~--15--14~--15--17~
D--15--15---------------15-15----------------------------------------------------
A--------------------------------------------------------------------------------
E--------------------------------------------------------------------------------

e----------------------------------------------------------------------------------
B----------------------------------------------------------------------------------
G------17--17--17------17--15--14---12--15--14~--15--14~--15--14~--15--14~--12--10~
D--15--------------15--------------------------------------------------------------
A----------------------------------------------------------------------------------
E----------------------------------------------------------------------------------

 Outro

e------------------------------------------
B-------------------8------------------8---
G--10--9--10---9-10---10--9--10---9-10-----
D----------------------------------------10
A------------------------------------------
E------------------------------------------
Login or Register to remove this ad.

1 comment on Ima Koko

Awesome, this is one of my

5

Awesome, this is one of my favorite openings of all time :')