Ads

Should be do be sha-la-la (Trouble Evocation) Guitar Tab

Submitted: Aug 24, 2012 by daniel guerra c...

5
Average: 5 (1 vote)
Download | Listen
Game: Trouble Evocation
Composer(s): Ikue Ohtani
Style: Transcription

This song is also called Ending Theme

Click here for a video example.

AutoScroll: Slow | Medium | Fast
Song : Should be do be sha-la-la (by Ikue Ohtani)
Anime: Trouble Evocation
Cover: Daniel Guerra Caballero
Video: http://youtu.be/fy2zgkgH_XU
Date : August, 2012
Mail : [email protected]
web  : http://danielguerracaballero.blogspot.com

Main riff (chorus)
1-----------------------|-------------------------------
2--------------------10-|-8-----/11-11-10-8-------------
3-/10-10-10-10-10-12----|-------------------------------
4-----------------------|---10--------------------------
5-----------------------|-------------------------------
6-----------------------|-------------------------------

1-----------------------|-------------------------------
2--------------------10-|-13-11-10----------------------
3-/10-10-10-10-10-12----|----------10-12----------------
4-----------------------|-------------------------------
5-----------------------|-------------------------------
6-----------------------|-------------------------------

1-----------------------|-------------------------------|------------------
2--------------------10-|-8-----/11-11-10-8-------10----|----10------------
3-/10-10-10-10-10-12----|-------------------10/12----10-|-------12-10-9-10-
4-----------------------|---10--------------------------|-10---------------
5-----------------------|-------------------------------|------------------
6-----------------------|-------------------------------|------------------


Voice

1---------------------------------|-------------------------------------------
2---------------------------------|-------------------------------------------
3-/8--------------10-13-----------|-10-10-8-6-8-10----------------------------
4----11-10-8-8-10-------10-8-8-10-|----------------10-/11-11-13-11-10-10-11-8-
5---------------------------------|-------------------------------------------
6---------------------------------|-------------------------------------------

1----------------------------------|--------------------------------------------
2----------------------------------|--------------------------------------------
3-/8-8--------------10-13----------|-10-10-8-6-8-10-----------------------------
4------11-10-8-8-10-------10-8-8-10|-----------------10-/11-11/13-11-10-10-11-8-
5----------------------------------|--------------------------------------------
6----------------------------------|--------------------------------------------


1------------------------------------|------------------------|----------|------------
2------------------------------------|------------------------|----------|------------
3-12(x5)-10(x5)---10(x5)-8-----------|--12(x5)----15-15-13-13-|-13-12-12-|-10-9-10-12-
4--------------------------11-8-8-10-|---------13-------------|----------|------------
5------------------------------------|------------------------|----------|------------
6------------------------------------|------------------------|----------|------------

Main riff (chorus)

1-----------------------|-------------------------------
2--------------------10-|-8-----/11-11-10-8-------------
3-/10-10-10-10-10-12----|-------------------------------
4-----------------------|---10--------------------------
5-----------------------|-------------------------------
6-----------------------|-------------------------------

1-----------------------|-------------------------------
2--------------------10-|-13-11-10----------------------
3-/10-10-10-10-10-12----|----------10-12----------------
4-----------------------|-------------------------------
5-----------------------|-------------------------------
6-----------------------|-------------------------------

1-----------------------|-------------------------------|------------------
2--------------------10-|-8-----/11-11-10-8-------10----|----10------------
3-/10-10-10-10-10-12----|-------------------10/12----10-|-------12-10-9-10-
4-----------------------|---10--------------------------|-10---------------
5-----------------------|-------------------------------|------------------
6-----------------------|-------------------------------|------------------


Solo

1--------------------------------------------------------
2--------------------------------------------------------
3-------10-----12-10-----10-12b-13b13-13--13-13-10-------
4-10h12-----12-------12----------------------------------
5--------------------------------------------------------
6--------------------------------------------------------

1------------------13---13--15h-15-15-13---13--/20-20-20-
2-/15-15-13-13h15----15-----------------15---------------
3--------------------------------------------------------
4--------------------------------------------------------
5--------------------------------------------------------
6--------------------------------------------------------
Login or Register to remove this ad.