Login or Register to remove this ad.

Sakura Sakura ~ Japanize Dream (Touhou 7: Perfect Cherry Blossom) Bass/Guitar Tab

Submitted: Apr 04, 2012 by Jacob31593 (Last updated: Jun 01, 2012)

5
Average: 5 (3 votes)
Download | Listen
Game: Touhou 7: Perfect Cherry Blossom
Composer(s): ZUN
Style: 2 or more instruments, Alternate picking, Arrangement, Sweep picking, Transcription
Series: Touhou

This song is also called Credits

AutoScroll: Slow | Medium | Fast

Sakura Sakura ~ Japanize Dream from Touhou 7
Composed by ZUN
Tabbed by Jacob31593
April 4th 2012

Zun + bass = 16th notes as far as the eye can see

142BPM

Lead

E||-------|-------|-------|-------|-------|-------|-------|-------|-------|-------|-------|-------|-------|-------|-------|
B||-------|-------|-------|-------|-------|-------|-------|-------|-------|-------|-------|-------|-------|-------|-------|
G||-------|-------|-------|-------|-------|-------|-------|-------|-------|-------|-------|-------|-------|-------|-------|
D||-------|-------|-------|-------|-------|-------|-------|-------|-------|-------|-------|-------|-------|-------|-------|
A||-------|-------|-------|-------|-------|-------|-------|-------|-------|-------|-------|-------|-------|-------|-------|
E||-------|-------|-------|-------|-------|-------|-------|-------|-------|-------|-------|-------|-------|-------|-------|


  Q    Q     E   E   E   E        E  E   E   E  E   E   E   E      E  E   E   E  E   E   E   E      E  E   E  E   E  E   E  E   
----------------------------||-----------------------------13--|----------------------------15--|------------------------------|
------------------------13--||---15-----13--15-----13--15------|--15-----13--15-----13--15------|--15-----13-------------------|
------------12--14--15------||*--------------------------------|--------------------------------|----------------15-----14-----|
----------------------------||*--------------------------------|--------------------------------|------------------------------|
----------------------------||---------------------------------|--------------------------------|------------------------------|
----------------------------||---------------------------------|--------------------------------|------------------------------|


   E  E   E  E   E   E  E   E     E  E   E   E  E   E   E   E      E  E   E   E  E   E   E   E      E  E  E  E  E  E   E   E   
-------------------------------|-------------------------------|--------------------------------|-----------------------------|
-------------------------------|-------------------------------|----------------------------13--|-----------------------------|
--15-----14-----12---------12--|------------12---------12--15--|--12---------12---------12------|--12---------------------12--|
--------------------15---------|--------15---------15----------|---------15---------15----------|---------------------15------|
-------------------------------|-------------------------------|--------------------------------|-----------------------------|
-------------------------------|-------------------------------|--------------------------------|-----------------------------|


  E   E   E  E  E   E   E   E      E  E   E   E  E   E   E   E      E  E   E   E  E   E   E   E      E  E   E  E   E  E   E  E   
-------------------------------|----------------------------13--|----------------------------15--|------------------------------|
---------------------------13--|--15-----13--15-----13--15------|--15-----13--15-----13--15------|--15-----13-------------------|
---------12--------14--15------|--------------------------------|--------------------------------|----------------15-----14-----|
-----15------------------------|--------------------------------|--------------------------------|------------------------------|
-------------------------------|--------------------------------|--------------------------------|------------------------------|
-------------------------------|--------------------------------|--------------------------------|------------------------------|


   E  E   E  E   E   E  E   E     E  E   E   E  E   E   E   E      E  E   E   E  E   E   E   E      E  E  E  E  E  E   E   E   
-------------------------------|-------------------------------|--------------------------------|-----------------------------|
-------------------------------|-------------------------------|----------------------------13--|-----------------------------|
--15-----14-----12---------12--|------------12---------12--15--|--12---------12---------12------|--12---------------------12--|
--------------------15---------|--------15---------15----------|---------15---------15----------|---------------------15------|
-------------------------------|-------------------------------|--------------------------------|-----------------------------|
-------------------------------|-------------------------------|--------------------------------|-----------------------------|


                                ^           ^     ^           ^     ^     ^     
  E   E   E  E  E  E  E  E      S  S  S  S  S  S  S  S  S  S  S  S  S  S  S  S  
----------------------------|--------------------------------------------------|
----------------------------|-----15-13-15----15----15-13-15----15----15----15-|
---------12-----------------|--12----------15----14----------15----14----12----|
-----15---------------------|--------------------------------------------------|
----------------------------|--------------------------------------------------|
----------------------------|--------------------------------------------------|


         ^     ^     ^           ^     ^     ^              ^     ^     ^     ^           ^     ^     
   S  S  S  S  S  S  S  S  S  S  S  S  S  S  S  S     S  S  S  S  S  S  S  S  S  S  S  S  S  S  S  S  
--------------------------------------------------|--------------------------------------------------|
--13-15----15----15----15-13-15----15----15----15-|--13-15-13-15----15----15----15-13-15-13-15----15-|
--------15----14----12----------15----14----12----|--------------15----14----12----------------15----|
--------------------------------------------------|--------------------------------------------------|
--------------------------------------------------|--------------------------------------------------|
--------------------------------------------------|--------------------------------------------------|


   ^     ^     ^     ^           ^     ^     ^        ^           ^     ^           ^     ^     ^     
   S  S  S  S  S  S  S  S  S  S  S  S  S  S  S  S     S  S  S  S  S  S  S  S  S  S  S  S  S  S  S  S  
--------------------------------------------------|--------------------------------------------------|
--13-15----15----15----15-13-15-13-15----15----15-|-----15-13-15----15----15-13-15----15----15----15-|
--------15----14----12----------------15----14----|--12----------15----14----------15----14----12----|
--------------------------------------------------|--------------------------------------------------|
--------------------------------------------------|--------------------------------------------------|
--------------------------------------------------|--------------------------------------------------|


         ^     ^     ^           ^     ^     ^              ^     ^     ^     ^           ^     ^     
   S  S  S  S  S  S  S  S  S  S  S  S  S  S  S  S     S  S  S  S  S  S  S  S  S  S  S  S  S  S  S  S  
--------------------------------------------------|--------------------------------------------------|
--13-15----15----15----15-13-15----15----15----15-|--13-15-13-15----15----15----15-13-15-13-15----15-|
--------15----14----12----------15----14----12----|--------------15----14----12----------------15----|
--------------------------------------------------|--------------------------------------------------|
--------------------------------------------------|--------------------------------------------------|
--------------------------------------------------|--------------------------------------------------|


   ^     ^     ^     ^           ^     ^     ^        ^           ^     ^           ^     ^     ^     
   S  S  S  S  S  S  S  S  S  S  S  S  S  S  S  S     S  S  S  S  S  S  S  S  S  S  S  S  S  S  S  S  
--------------------------------------------------|--------------------------------------------------|
--13-15----15----15----15-13-15-13-15----15----15-|-----15-13-15----15----15-13-15----15----15----15-|
--------15----14----12----------------15----14----|--12----------15----14----------15----14----12----|
--------------------------------------------------|--------------------------------------------------|
--------------------------------------------------|--------------------------------------------------|
--------------------------------------------------|--------------------------------------------------|


         ^     ^     ^           ^     ^     ^              ^     ^     ^     ^           ^     ^     
   S  S  S  S  S  S  S  S  S  S  S  S  S  S  S  S     S  S  S  S  S  S  S  S  S  S  S  S  S  S  S  S  
--------------------------------------------------|--------------------------------------------------|
--13-15----15----15----15-13-15----15----15----15-|--13-15-13-15----15----15----15-13-15-13-15----15-|
--------15----14----12----------15----14----12----|--------------15----14----12----------------15----|
--------------------------------------------------|--------------------------------------------------|
--------------------------------------------------|--------------------------------------------------|
--------------------------------------------------|--------------------------------------------------|


   ^     ^     ^     ^           ^     ^     ^        ^           ^     ^           ^     ^     ^     
   S  S  S  S  S  S  S  S  S  S  S  S  S  S  S  S     S  S  S  S  S  S  S  S  S  S  S  S  S  S  S  S  
--------------------------------------------------|--------------------------------------------------|
--13-15----15----15----15-13-15-13-15----15----15-|-----15-13-15----15----15-13-15----15----15----15-|
--------15----14----12----------------15----14----|--12----------15----14----------15----14----12----|
--------------------------------------------------|--------------------------------------------------|
--------------------------------------------------|--------------------------------------------------|
--------------------------------------------------|--------------------------------------------------|


         ^     ^     ^           ^     ^     ^              ^     ^     ^     ^           ^     ^     
   S  S  S  S  S  S  S  S  S  S  S  S  S  S  S  S     S  S  S  S  S  S  S  S  S  S  S  S  S  S  S  S  
--------------------------------------------------|--------------------------------------------------|
--13-15----15----15----15-13-15----15----15----15-|--13-15-13-15----15----15----15-13-15-13-15----15-|
--------15----14----12----------15----14----12----|--------------15----14----12----------------15----|
--------------------------------------------------|--------------------------------------------------|
--------------------------------------------------|--------------------------------------------------|
--------------------------------------------------|--------------------------------------------------|


   ^     ^     ^     ^           ^     ^     ^        ^           ^     ^           ^     ^     ^     
   S  S  S  S  S  S  S  S  S  S  S  S  S  S  S  S     S  S  S  S  S  S  S  S  S  S  S  S  S  S  S  S  
--------------------------------------------------|--------------------------------------------------|
--13-15----15----15----15-13-15-13-15----15----15-|-----15-13-15----15----15-13-15----15----15----15-|
--------15----14----12----------------15----14----|--12----------15----14----------15----14----12----|
--------------------------------------------------|--------------------------------------------------|
--------------------------------------------------|--------------------------------------------------|
--------------------------------------------------|--------------------------------------------------|


         ^     ^     ^           ^     ^     ^              ^     ^     ^     ^           ^     ^     
   S  S  S  S  S  S  S  S  S  S  S  S  S  S  S  S     S  S  S  S  S  S  S  S  S  S  S  S  S  S  S  S  
--------------------------------------------------|--------------------------------------------------|
--13-15----15----15----15-13-15----15----15----15-|--13-15-13-15----15----15----15-13-15-13-15----15-|
--------15----14----12----------15----14----12----|--------------15----14----12----------------15----|
--------------------------------------------------|--------------------------------------------------|
--------------------------------------------------|--------------------------------------------------|
--------------------------------------------------|--------------------------------------------------|


   ^     ^     ^     ^           ^     ^     ^        ^           ^     ^           ^     ^     ^     
   S  S  S  S  S  S  S  S  S  S  S  S  S  S  S  S     S  S  S  S  S  S  S  S  S  S  S  S  S  S  S  S  
--------------------------------------------------|--------------------------------------------------|
--13-15----15----15----15-13-15-13-15----15----15-|-----15-13-15----15----15-13-15----15----15----15-|
--------15----14----12----------------15----14----|--12----------15----14----------15----14----12----|
--------------------------------------------------|--------------------------------------------------|
--------------------------------------------------|--------------------------------------------------|
--------------------------------------------------|--------------------------------------------------|


         ^     ^     ^           ^     ^     ^              ^     ^     ^     ^           ^     ^     
   S  S  S  S  S  S  S  S  S  S  S  S  S  S  S  S     S  S  S  S  S  S  S  S  S  S  S  S  S  S  S  S  
--------------------------------------------------|--------------------------------------------------|
--13-15----15----15----15-13-15----15----15----15-|--13-15-13-15----15----15----15-13-15-13-15----15-|
--------15----14----12----------15----14----12----|--------------15----14----12----------------15----|
--------------------------------------------------|--------------------------------------------------|
--------------------------------------------------|--------------------------------------------------|
--------------------------------------------------|--------------------------------------------------|


   ^     ^     ^     ^           ^     ^     ^       
   S  S  S  S  S  S  S  S  S  S  S  S  S  S  S  S    
---------------------------------------------------||
--13-15----15----15----15-13-15-13-15----15----15--||
--------15----14----12----------------15----14----*||
--------------------------------------------------*||
---------------------------------------------------||
---------------------------------------------------||


Lead 2

E||-------|-------|-------|-------|-------|-------|-------|-------|-------|-------|-------|-------|-------|-------|-------|
B||-------|-------|-------|-------|-------|-------|-------|-------|-------|-------|-------|-------|-------|-------|-------|
G||-------|-------|-------|-------|-------|-------|-------|-------|-------|-------|-------|-------|-------|-------|-------|
D||-------|-------|-------|-------|-------|-------|-------|-------|-------|-------|-------|-------|-------|-------|-------|
A||-------|-------|-------|-------|-------|-------|-------|-------|-------|-------|-------|-------|-------|-------|-------|
E||-------|-------|-------|-------|-------|-------|-------|-------|-------|-------|-------|-------|-------|-------|-------|


  Q    Q     E   E   E   E        E  E   E   E  E   E   E   E      E  E   E   E  E   E   E   E      E  E   E  E   E  E   E  E   
----------------------------||---------------------------------|--------------------------------|------------------------------|
----------------------------||---------------------------------|--------------------------------|------------------------------|
----------------------------||*----------------------------10--|----------------------------12--|------------------------------|
------------------------10--||*--12-----10--12-----10--12------|--12-----10--12-----10--12------|--12-----10-------------------|
------------10--12--13------||---------------------------------|--------------------------------|----------------13-----12-----|
----------------------------||---------------------------------|--------------------------------|------------------------------|


   E  E   E  E   E   E  E   E     E  E   E   E  E   E   E   E      E  E   E   E  E   E   E   E      E  E  E  E  E  E   E   E   
-------------------------------|-------------------------------|--------------------------------|-----------------------------|
-------------------------------|-------------------------------|--------------------------------|-----------------------------|
-------------------------------|-------------------------------|--------------------------------|-----------------------------|
-------------------------------|-------------------------------|----------------------------10--|-----------------------------|
--13-----12-----10---------10--|------------10---------10--13--|--10---------10---------10------|--10---------------------10--|
--------------------13---------|--------13---------13----------|---------13---------13----------|---------------------13------|


  E   E   E  E  E   E   E   E      E  E   E   E  E   E   E   E      E  E   E   E  E   E   E   E      E  E   E  E   E  E   E  E   
-------------------------------|--------------------------------|--------------------------------|------------------------------|
-------------------------------|--------------------------------|--------------------------------|------------------------------|
-------------------------------|----------------------------10--|----------------------------12--|------------------------------|
---------------------------10--|--12-----10--12-----10--12------|--12-----10--12-----10--12------|--12-----10-------------------|
---------10--------12--13------|--------------------------------|--------------------------------|----------------13-----12-----|
-----13------------------------|--------------------------------|--------------------------------|------------------------------|


   E  E   E  E   E   E  E   E     E  E   E   E  E   E   E   E      E  E   E   E  E   E   E   E      E  E  E  E  E  E   E   E   
-------------------------------|-------------------------------|--------------------------------|-----------------------------|
-------------------------------|-------------------------------|--------------------------------|-----------------------------|
-------------------------------|-------------------------------|--------------------------------|-----------------------------|
-------------------------------|-------------------------------|----------------------------10--|-----------------------------|
--13-----12-----10---------10--|------------10---------10--13--|--10---------10---------10------|--10---------------------10--|
--------------------13---------|--------13---------13----------|---------13---------13----------|---------------------13------|


  E   E   E  E  E  E  E  E                                                                                                   
----------------------------|-----|-----|-----|-----|-----|-----|-----|-----|-----|-----|-----|-----|-----|-----|-----|-----|
----------------------------|-----|-----|-----|-----|-----|-----|-----|-----|-----|-----|-----|-----|-----|-----|-----|-----|
----------------------------|-----|-----|-----|-----|-----|-----|-----|-----|-----|-----|-----|-----|-----|-----|-----|-----|
----------------------------|-----|-----|-----|-----|-----|-----|-----|-----|-----|-----|-----|-----|-----|-----|-----|-----|
---------10-----------------|-----|-----|-----|-----|-----|-----|-----|-----|-----|-----|-----|-----|-----|-----|-----|-----|
-----13---------------------|-----|-----|-----|-----|-----|-----|-----|-----|-----|-----|-----|-----|-----|-----|-----|-----|


-----|-----|-----|-----|-----|-----|-----|------||
-----|-----|-----|-----|-----|-----|-----|------||
-----|-----|-----|-----|-----|-----|-----|-----*||
-----|-----|-----|-----|-----|-----|-----|-----*||
-----|-----|-----|-----|-----|-----|-----|------||
-----|-----|-----|-----|-----|-----|-----|------||

Strings

      H         H            W                    H         H            W                    H         H         
E||----------------------|--17----------------|----------------------|--22----------------|----------------------|
B||--20--------20--------|--------------------|--20--------20--------|--------------------|--20--------20--------|
G||----------------------|--------------------|----------------------|--------------------|----------------------|
D||----------------------|--------------------|----------------------|--------------------|----------------------|
A||----------------------|--------------------|----------------------|--------------------|----------------------|
E||----------------------|--------------------|----------------------|--------------------|----------------------|


   H         Q     Q        Q     Q     H            W                    H         H            W                 
--17--------------17----|--18----17--------------|--------------------|----------------------|--17----------------|
------------20----------|--------------18--------|--20----------------|--20--------20--------|--------------------|
------------------------|------------------------|--------------------|----------------------|--------------------|
------------------------|------------------------|--------------------|----------------------|--------------------|
------------------------|------------------------|--------------------|----------------------|--------------------|
------------------------|------------------------|--------------------|----------------------|--------------------|


   H         H            W                    H         H            H         Q     Q        Q     Q     H         
----------------------|--22----------------|----------------------|--17--------------17----|--18----17--------------|
--20--------20--------|--------------------|--20--------20--------|------------20----------|--------------18--------|
----------------------|--------------------|----------------------|------------------------|------------------------|
----------------------|--------------------|----------------------|------------------------|------------------------|
----------------------|--------------------|----------------------|------------------------|------------------------|
----------------------|--------------------|----------------------|------------------------|------------------------|


   W                      H         H            W                    H         H            W                 
--------------------||-----------------------|--17----------------|----------------------|--22----------------|
--20----------------||---20--------20--------|--------------------|--20--------20--------|--------------------|
--------------------||*----------------------|--------------------|----------------------|--------------------|
--------------------||*----------------------|--------------------|----------------------|--------------------|
--------------------||-----------------------|--------------------|----------------------|--------------------|
--------------------||-----------------------|--------------------|----------------------|--------------------|


   H         H            H         Q     Q        Q     Q     H            W                    H         H         
----------------------|--17--------------17----|--18----17--------------|--------------------|----------------------|
--20--------20--------|------------20----------|--------------18--------|--20----------------|--20--------20--------|
----------------------|------------------------|------------------------|--------------------|----------------------|
----------------------|------------------------|------------------------|--------------------|----------------------|
----------------------|------------------------|------------------------|--------------------|----------------------|
----------------------|------------------------|------------------------|--------------------|----------------------|


   W                    H         H            W                    H         H            H         Q     Q     
--17----------------|----------------------|--22----------------|----------------------|--17--------------17----|
--------------------|--20--------20--------|--------------------|--20--------20--------|------------20----------|
--------------------|----------------------|--------------------|----------------------|------------------------|
--------------------|----------------------|--------------------|----------------------|------------------------|
--------------------|----------------------|--------------------|----------------------|------------------------|
--------------------|----------------------|--------------------|----------------------|------------------------|


   Q     Q     H            W                                                                                                 
--18----17--------------|--------------------|-------------------|-------------------|-------------------|-------------------|
--------------18--------|--20----------------|-------------------|-------------------|-------------------|-------------------|
------------------------|--------------------|-------------------|-------------------|-------------------|-------------------|
------------------------|--------------------|-------------------|-------------------|-------------------|-------------------|
------------------------|--------------------|-------------------|-------------------|-------------------|-------------------|
------------------------|--------------------|-------------------|-------------------|-------------------|-------------------|


-------------------|-------------------|-------------------|-------------------|-------------------|-------------------|
-------------------|-------------------|-------------------|-------------------|-------------------|-------------------|
-------------------|-------------------|-------------------|-------------------|-------------------|-------------------|
-------------------|-------------------|-------------------|-------------------|-------------------|-------------------|
-------------------|-------------------|-------------------|-------------------|-------------------|-------------------|
-------------------|-------------------|-------------------|-------------------|-------------------|-------------------|


-------------------|-------------------|-------------------|-------------------|-------------------|-------------------|
-------------------|-------------------|-------------------|-------------------|-------------------|-------------------|
-------------------|-------------------|-------------------|-------------------|-------------------|-------------------|
-------------------|-------------------|-------------------|-------------------|-------------------|-------------------|
-------------------|-------------------|-------------------|-------------------|-------------------|-------------------|
-------------------|-------------------|-------------------|-------------------|-------------------|-------------------|


   H         H            W                    H         H            W                    H         H         
----------------------|--17----------------|----------------------|--22----------------|----------------------|
--20--------20--------|--------------------|--20--------20--------|--------------------|--20--------20--------|
----------------------|--------------------|----------------------|--------------------|----------------------|
----------------------|--------------------|----------------------|--------------------|----------------------|
----------------------|--------------------|----------------------|--------------------|----------------------|
----------------------|--------------------|----------------------|--------------------|----------------------|


   H         Q     Q        Q     Q     H            W                   
--17--------------17----|--18----17--------------|---------------------||
------------20----------|--------------18--------|--20-----------------||
------------------------|------------------------|--------------------*||
------------------------|------------------------|--------------------*||
------------------------|------------------------|---------------------||
------------------------|------------------------|---------------------||


Voice

      H         H            W                    H         H            W                    H         H         
E||--10--------10--------|--13----------------|--10--------10--------|--13----------------|----------------------|
B||----------------------|--------------------|----------------------|--------------------|--11--------11--------|
G||----------------------|--------------------|----------------------|--------------------|----------------------|
D||----------------------|--------------------|----------------------|--------------------|----------------------|
A||----------------------|--------------------|----------------------|--------------------|----------------------|
E||----------------------|--------------------|----------------------|--------------------|----------------------|


   H         Q     Q        Q     Q     H            W                    H         H            W                 
------------10----13----|--10--------------------|--------------------|--10--------10--------|--13----------------|
--13--------------------|--------13----10--------|--11----------------|----------------------|--------------------|
------------------------|------------------------|--------------------|----------------------|--------------------|
------------------------|------------------------|--------------------|----------------------|--------------------|
------------------------|------------------------|--------------------|----------------------|--------------------|
------------------------|------------------------|--------------------|----------------------|--------------------|


   H         H            W                    H         H            H         Q     Q        Q     Q     H         
--10--------10--------|--13----------------|----------------------|------------10----13----|--10--------------------|
----------------------|--------------------|--11--------11--------|--13--------------------|--------13----10--------|
----------------------|--------------------|----------------------|------------------------|------------------------|
----------------------|--------------------|----------------------|------------------------|------------------------|
----------------------|--------------------|----------------------|------------------------|------------------------|
----------------------|--------------------|----------------------|------------------------|------------------------|


   W                      H         H            W                    H         H            W                 
--------------------||---10--------10--------|--13----------------|--10--------10--------|--13----------------|
--11----------------||-----------------------|--------------------|----------------------|--------------------|
--------------------||*----------------------|--------------------|----------------------|--------------------|
--------------------||*----------------------|--------------------|----------------------|--------------------|
--------------------||-----------------------|--------------------|----------------------|--------------------|
--------------------||-----------------------|--------------------|----------------------|--------------------|


   H         H            H         Q     Q        Q     Q     H            W                    H         H         
----------------------|------------10----13----|--10--------------------|--------------------|--10--------10--------|
--11--------11--------|--13--------------------|--------13----10--------|--11----------------|----------------------|
----------------------|------------------------|------------------------|--------------------|----------------------|
----------------------|------------------------|------------------------|--------------------|----------------------|
----------------------|------------------------|------------------------|--------------------|----------------------|
----------------------|------------------------|------------------------|--------------------|----------------------|


   W                    H         H            W                    H         H            H         Q     Q     
--13----------------|--10--------10--------|--13----------------|----------------------|------------10----13----|
--------------------|----------------------|--------------------|--11--------11--------|--13--------------------|
--------------------|----------------------|--------------------|----------------------|------------------------|
--------------------|----------------------|--------------------|----------------------|------------------------|
--------------------|----------------------|--------------------|----------------------|------------------------|
--------------------|----------------------|--------------------|----------------------|------------------------|


   Q     Q     H            W                                                                                                 
--10--------------------|--------------------|-------------------|-------------------|-------------------|-------------------|
--------13----10--------|--11----------------|-------------------|-------------------|-------------------|-------------------|
------------------------|--------------------|-------------------|-------------------|-------------------|-------------------|
------------------------|--------------------|-------------------|-------------------|-------------------|-------------------|
------------------------|--------------------|-------------------|-------------------|-------------------|-------------------|
------------------------|--------------------|-------------------|-------------------|-------------------|-------------------|


                                                                                   H         H            W                 
-------------------|-------------------|-------------------|-------------------|--10--------10--------|--13----------------|
-------------------|-------------------|-------------------|-------------------|----------------------|--------------------|
-------------------|-------------------|-------------------|-------------------|----------------------|--------------------|
-------------------|-------------------|-------------------|-------------------|----------------------|--------------------|
-------------------|-------------------|-------------------|-------------------|----------------------|--------------------|
-------------------|-------------------|-------------------|-------------------|----------------------|--------------------|


   H         H            W                    H         H            H         Q     Q        Q     Q     H         
--10--------10--------|--13----------------|----------------------|------------10----13----|--10--------------------|
----------------------|--------------------|--11--------11--------|--13--------------------|--------13----10--------|
----------------------|--------------------|----------------------|------------------------|------------------------|
----------------------|--------------------|----------------------|------------------------|------------------------|
----------------------|--------------------|----------------------|------------------------|------------------------|
----------------------|--------------------|----------------------|------------------------|------------------------|


   W                    H         H            W                    H         H            W                 
--------------------|--10--------10--------|--13----------------|--10--------10--------|--13----------------|
--11----------------|----------------------|--------------------|----------------------|--------------------|
--------------------|----------------------|--------------------|----------------------|--------------------|
--------------------|----------------------|--------------------|----------------------|--------------------|
--------------------|----------------------|--------------------|----------------------|--------------------|
--------------------|----------------------|--------------------|----------------------|--------------------|


   H         H            H         Q     Q        Q     Q     H            W                   
----------------------|------------10----13----|--10--------------------|---------------------||
--11--------11--------|--13--------------------|--------13----10--------|--11-----------------||
----------------------|------------------------|------------------------|--------------------*||
----------------------|------------------------|------------------------|--------------------*||
----------------------|------------------------|------------------------|---------------------||
----------------------|------------------------|------------------------|---------------------||


Rhythm

     H        H            W                    H         H            W                   H        H         
E||--------------------|--------------------|----------------------|--------------------|--------------------|
B||--------------------|--------------------|----------------------|--10----------------|--------------------|
G||--8--------8--------|--10----------------|--12--------12--------|--10----------------|--8--------8--------|
D||--8--------8--------|--10----------------|--12--------12--------|---7----------------|--8--------8--------|
A||--6--------6--------|---8----------------|--10--------10--------|--------------------|--6--------6--------|
E||--------------------|--------------------|----------------------|--------------------|--------------------|


   W                    W                    W                   H        H            W                    H         H         
--------------------|--------------------|--------------------|--------------------|--------------------|----------------------|
--------------------|--------------------|--------------------|--------------------|--------------------|----------------------|
--10----------------|--12----------------|--12----------------|--8--------8--------|--10----------------|--12--------12--------|
--10----------------|--12----------------|--12----------------|--8--------8--------|--10----------------|--12--------12--------|
---8----------------|--10----------------|--10----------------|--6--------6--------|---8----------------|--10--------10--------|
--------------------|--------------------|--------------------|--------------------|--------------------|----------------------|


   W                   H        H            W                    W                    W                     H        H         
--------------------|--------------------|--------------------|--------------------|--------------------||---------------------|
--10----------------|--------------------|--------------------|--------------------|--------------------||---------------------|
--10----------------|--8--------8--------|--10----------------|--12----------------|--12----------------||*--8--------8--------|
---7----------------|--8--------8--------|--10----------------|--12----------------|--12----------------||*--8--------8--------|
--------------------|--6--------6--------|---8----------------|--10----------------|--10----------------||---6--------6--------|
--------------------|--------------------|--------------------|--------------------|--------------------||---------------------|


   W                    H         H            W                   H        H            W                    W                 
--------------------|----------------------|--------------------|--------------------|--------------------|--------------------|
--------------------|----------------------|--10----------------|--------------------|--------------------|--------------------|
--10----------------|--12--------12--------|--10----------------|--8--------8--------|--10----------------|--12----------------|
--10----------------|--12--------12--------|---7----------------|--8--------8--------|--10----------------|--12----------------|
---8----------------|--10--------10--------|--------------------|--6--------6--------|---8----------------|--10----------------|
--------------------|----------------------|--------------------|--------------------|--------------------|--------------------|


   W                   H        H            W                    H         H            W                   H        H         
--------------------|--------------------|--------------------|----------------------|--------------------|--------------------|
--------------------|--------------------|--------------------|----------------------|--10----------------|--------------------|
--12----------------|--8--------8--------|--10----------------|--12--------12--------|--10----------------|--8--------8--------|
--12----------------|--8--------8--------|--10----------------|--12--------12--------|---7----------------|--8--------8--------|
--10----------------|--6--------6--------|---8----------------|--10--------10--------|--------------------|--6--------6--------|
--------------------|--------------------|--------------------|----------------------|--------------------|--------------------|


   W                    W                    W                   W                    W                    W                 
--------------------|--------------------|--------------------|-------------------|--------------------|--------------------|
--------------------|--------------------|--------------------|-------------------|--------------------|--------------------|
--10----------------|--12----------------|--12----------------|-------------------|--------------------|--------------------|
--10----------------|--12----------------|--12----------------|--8----------------|--10----------------|--12----------------|
---8----------------|--10----------------|--10----------------|--6----------------|---8----------------|--10----------------|
--------------------|--------------------|--------------------|-------------------|--------------------|--------------------|


   W                   W                    W                    W                    W                   W                 
--------------------|-------------------|--------------------|--------------------|--------------------|-------------------|
--------------------|-------------------|--------------------|--------------------|--------------------|-------------------|
--10----------------|--8----------------|--10----------------|--12----------------|--12----------------|--8----------------|
---7----------------|--8----------------|--10----------------|--12----------------|--12----------------|--8----------------|
--------------------|--6----------------|---8----------------|--10----------------|--10----------------|--6----------------|
--------------------|-------------------|--------------------|--------------------|--------------------|-------------------|


   W                    W                    W                   W                    W                    W                 
--------------------|--------------------|--------------------|-------------------|--------------------|--------------------|
--------------------|--------------------|--10----------------|-------------------|--------------------|--------------------|
--10----------------|--12----------------|--10----------------|--8----------------|--10----------------|--12----------------|
--10----------------|--12----------------|---7----------------|--8----------------|--10----------------|--12----------------|
---8----------------|--10----------------|--------------------|--6----------------|---8----------------|--10----------------|
--------------------|--------------------|--------------------|-------------------|--------------------|--------------------|


   W                   H        H            W                    H         H            W                   H        H         
--------------------|--------------------|--------------------|----------------------|--------------------|--------------------|
--------------------|--------------------|--------------------|----------------------|--10----------------|--------------------|
--12----------------|--8--------8--------|--10----------------|--12--------12--------|--10----------------|--8--------8--------|
--12----------------|--8--------8--------|--10----------------|--12--------12--------|---7----------------|--8--------8--------|
--10----------------|--6--------6--------|---8----------------|--10--------10--------|--------------------|--6--------6--------|
--------------------|--------------------|--------------------|----------------------|--------------------|--------------------|


   W                    W                    W                   
--------------------|--------------------|---------------------||
--------------------|--------------------|---------------------||
--10----------------|--12----------------|--12----------------*||
--10----------------|--12----------------|--12----------------*||
---8----------------|--10----------------|--10-----------------||
--------------------|--------------------|---------------------||


Bloopy

      S  S  S  S  S  S  S  S  S  S  S  S  S  S  S  S     S  S  S  S  S  S  S  S  S  S  S  S  S  S  S  S  
E||--------------------------------------------------|--------------------------------------------------|
B||-----15-13-15----15----15-13-15----15----15----15-|--13-15----15----15----15-13-15----15----15----15-|
G||--12----------15----14----------15----14----12----|--------15----14----12----------15----14----12----|
D||--------------------------------------------------|--------------------------------------------------|
A||--------------------------------------------------|--------------------------------------------------|
E||--------------------------------------------------|--------------------------------------------------|


   S  S  S  S  S  S  S  S  S  S  S  S  S  S  S  S     S  S  S  S  S  S  S  S  S  S  S  S  S  S  S  S  
--------------------------------------------------|--------------------------------------------------|
--13-15-13-15----15----15----15-13-15-13-15----15-|--13-15----15----15----15-13-15-13-15----15----15-|
--------------15----14----12----------------15----|--------15----14----12----------------15----14----|
--------------------------------------------------|--------------------------------------------------|
--------------------------------------------------|--------------------------------------------------|
--------------------------------------------------|--------------------------------------------------|


   S  S  S  S  S  S  S  S  S  S  S  S  S  S  S  S     S  S  S  S  S  S  S  S  S  S  S  S  S  S  S  S  
--------------------------------------------------|--------------------------------------------------|
-----15-13-15----15----15-13-15----15----15----15-|--13-15----15----15----15-13-15----15----15----15-|
--12----------15----14----------15----14----12----|--------15----14----12----------15----14----12----|
--------------------------------------------------|--------------------------------------------------|
--------------------------------------------------|--------------------------------------------------|
--------------------------------------------------|--------------------------------------------------|


   S  S  S  S  S  S  S  S  S  S  S  S  S  S  S  S     S  S  S  S  S  S  S  S  S  S  S  S  S  S  S  S  
--------------------------------------------------|--------------------------------------------------|
--13-15-13-15----15----15----15-13-15-13-15----15-|--13-15----15----15----15-13-15-13-15----15----15-|
--------------15----14----12----------------15----|--------15----14----12----------------15----14----|
--------------------------------------------------|--------------------------------------------------|
--------------------------------------------------|--------------------------------------------------|
--------------------------------------------------|--------------------------------------------------|


   S  S  S  S  S  S  S  S  S  S  S  S  S  S  S  S     S  S  S  S  S  S  S  S  S  S  S  S  S  S  S  S  
--------------------------------------------------|--------------------------------------------------|
-----15-13-15----15----15-13-15----15----15----15-|--13-15----15----15----15-13-15----15----15----15-|
--12----------15----14----------15----14----12----|--------15----14----12----------15----14----12----|
--------------------------------------------------|--------------------------------------------------|
--------------------------------------------------|--------------------------------------------------|
--------------------------------------------------|--------------------------------------------------|


   S  S  S  S  S  S  S  S  S  S  S  S  S  S  S  S     S  S  S  S  S  S  S  S  S  S  S  S  S  S  S  S  
--------------------------------------------------|--------------------------------------------------|
--13-15-13-15----15----15----15-13-15-13-15----15-|--13-15----15----15----15-13-15-13-15----15----15-|
--------------15----14----12----------------15----|--------15----14----12----------------15----14----|
--------------------------------------------------|--------------------------------------------------|
--------------------------------------------------|--------------------------------------------------|
--------------------------------------------------|--------------------------------------------------|


   S  S  S  S  S  S  S  S  S  S  S  S  S  S  S  S     S  S  S  S  S  S  S  S  S  S  S  S  S  S  S  S  
--------------------------------------------------|--------------------------------------------------|
-----15-13-15----15----15-13-15----15----15----15-|--13-15----15----15----15-13-15----15----15----15-|
--12----------15----14----------15----14----12----|--------15----14----12----------15----14----12----|
--------------------------------------------------|--------------------------------------------------|
--------------------------------------------------|--------------------------------------------------|
--------------------------------------------------|--------------------------------------------------|


   S  S  S  S  S  S  S  S  S  S  S  S  S  S  S  S     S  S  S  S  S  S  S  S  S  S  S  S  S  S  S  S  
--------------------------------------------------|--------------------------------------------------|
--13-15-13-15----15----15----15-13-15-13-15----15-|--13-15----15----15----15-13-15-13-15----15----15-|
--------------15----14----12----------------15----|--------15----14----12----------------15----14----|
--------------------------------------------------|--------------------------------------------------|
--------------------------------------------------|--------------------------------------------------|
--------------------------------------------------|--------------------------------------------------|


     S  S  S  S  S  S  S  S  S  S  S  S  S  S  S  S     S  S  S  S  S  S  S  S  S  S  S  S  S  S  S  S  
|---------------------------------------------------|--------------------------------------------------|
|------15-13-15----15----15-13-15----15----15----15-|--13-15----15----15----15-13-15----15----15----15-|
|*--12----------15----14----------15----14----12----|--------15----14----12----------15----14----12----|
|*--------------------------------------------------|--------------------------------------------------|
|---------------------------------------------------|--------------------------------------------------|
|---------------------------------------------------|--------------------------------------------------|


   S  S  S  S  S  S  S  S  S  S  S  S  S  S  S  S     S  S  S  S  S  S  S  S  S  S  S  S  S  S  S  S  
--------------------------------------------------|--------------------------------------------------|
--13-15-13-15----15----15----15-13-15-13-15----15-|--13-15----15----15----15-13-15-13-15----15----15-|
--------------15----14----12----------------15----|--------15----14----12----------------15----14----|
--------------------------------------------------|--------------------------------------------------|
--------------------------------------------------|--------------------------------------------------|
--------------------------------------------------|--------------------------------------------------|


   S  S  S  S  S  S  S  S  S  S  S  S  S  S  S  S     S  S  S  S  S  S  S  S  S  S  S  S  S  S  S  S  
--------------------------------------------------|--------------------------------------------------|
-----15-13-15----15----15-13-15----15----15----15-|--13-15----15----15----15-13-15----15----15----15-|
--12----------15----14----------15----14----12----|--------15----14----12----------15----14----12----|
--------------------------------------------------|--------------------------------------------------|
--------------------------------------------------|--------------------------------------------------|
--------------------------------------------------|--------------------------------------------------|


   S  S  S  S  S  S  S  S  S  S  S  S  S  S  S  S     S  S  S  S  S  S  S  S  S  S  S  S  S  S  S  S  
--------------------------------------------------|--------------------------------------------------|
--13-15-13-15----15----15----15-13-15-13-15----15-|--13-15----15----15----15-13-15-13-15----15----15-|
--------------15----14----12----------------15----|--------15----14----12----------------15----14----|
--------------------------------------------------|--------------------------------------------------|
--------------------------------------------------|--------------------------------------------------|
--------------------------------------------------|--------------------------------------------------|


   S  S  S  S  S  S  S  S  S  S  S  S  S  S  S  S     S  S  S  S  S  S  S  S  S  S  S  S  S  S  S  S  
--------------------------------------------------|--------------------------------------------------|
-----15-13-15----15----15-13-15----15----15----15-|--13-15----15----15----15-13-15----15----15----15-|
--12----------15----14----------15----14----12----|--------15----14----12----------15----14----12----|
--------------------------------------------------|--------------------------------------------------|
--------------------------------------------------|--------------------------------------------------|
--------------------------------------------------|--------------------------------------------------|


   S  S  S  S  S  S  S  S  S  S  S  S  S  S  S  S     S  S  S  S  S  S  S  S  S  S  S  S  S  S  S  S  
--------------------------------------------------|--------------------------------------------------|
--13-15-13-15----15----15----15-13-15-13-15----15-|--13-15----15----15----15-13-15-13-15----15----15-|
--------------15----14----12----------------15----|--------15----14----12----------------15----14----|
--------------------------------------------------|--------------------------------------------------|
--------------------------------------------------|--------------------------------------------------|
--------------------------------------------------|--------------------------------------------------|


   S  S  S  S  S  S  S  S  S  S  S  S  S  S  S  S     S  S  S  S  S  S  S  S  S  S  S  S  S  S  S  S  
--------------------------------------------------|--------------------------------------------------|
-----15-13-15----15----15-13-15----15----15----15-|--13-15----15----15----15-13-15----15----15----15-|
--12----------15----14----------15----14----12----|--------15----14----12----------15----14----12----|
--------------------------------------------------|--------------------------------------------------|
--------------------------------------------------|--------------------------------------------------|
--------------------------------------------------|--------------------------------------------------|


   S  S  S  S  S  S  S  S  S  S  S  S  S  S  S  S     S  S  S  S  S  S  S  S  S  S  S  S  S  S  S  S  
--------------------------------------------------|--------------------------------------------------|
--13-15-13-15----15----15----15-13-15-13-15----15-|--13-15----15----15----15-13-15-13-15----15----15-|
--------------15----14----12----------------15----|--------15----14----12----------------15----14----|
--------------------------------------------------|--------------------------------------------------|
--------------------------------------------------|--------------------------------------------------|
--------------------------------------------------|--------------------------------------------------|


   S  S  S  S  S  S  S  S  S  S  S  S  S  S  S  S     S  S  S  S  S  S  S  S  S  S  S  S  S  S  S  S  
--------------------------------------------------|--------------------------------------------------|
-----15-13-15----15----15-13-15----15----15----15-|--13-15----15----15----15-13-15----15----15----15-|
--12----------15----14----------15----14----12----|--------15----14----12----------15----14----12----|
--------------------------------------------------|--------------------------------------------------|
--------------------------------------------------|--------------------------------------------------|
--------------------------------------------------|--------------------------------------------------|


   S  S  S  S  S  S  S  S  S  S  S  S  S  S  S  S     S  S  S  S  S  S  S  S  S  S  S  S  S  S  S  S  
--------------------------------------------------|--------------------------------------------------|
--13-15-13-15----15----15----15-13-15-13-15----15-|--13-15----15----15----15-13-15-13-15----15----15-|
--------------15----14----12----------------15----|--------15----14----12----------------15----14----|
--------------------------------------------------|--------------------------------------------------|
--------------------------------------------------|--------------------------------------------------|
--------------------------------------------------|--------------------------------------------------|


   S  S  S  S  S  S  S  S  S  S  S  S  S  S  S  S     S  S  S  S  S  S  S  S  S  S  S  S  S  S  S  S  
--------------------------------------------------|--------------------------------------------------|
-----15-13-15----15----15-13-15----15----15----15-|--13-15----15----15----15-13-15----15----15----15-|
--12----------15----14----------15----14----12----|--------15----14----12----------15----14----12----|
--------------------------------------------------|--------------------------------------------------|
--------------------------------------------------|--------------------------------------------------|
--------------------------------------------------|--------------------------------------------------|


   S  S  S  S  S  S  S  S  S  S  S  S  S  S  S  S     S  S  S  S  S  S  S  S  S  S  S  S  S  S  S  S  
--------------------------------------------------|--------------------------------------------------|
--13-15-13-15----15----15----15-13-15-13-15----15-|--13-15----15----15----15-13-15-13-15----15----15-|
--------------15----14----12----------------15----|--------15----14----12----------------15----14----|
--------------------------------------------------|--------------------------------------------------|
--------------------------------------------------|--------------------------------------------------|
--------------------------------------------------|--------------------------------------------------|


   S  S  S  S  S  S  S  S  S  S  S  S  S  S  S  S     S  S  S  S  S  S  S  S  S  S  S  S  S  S  S  S  
--------------------------------------------------|--------------------------------------------------|
-----15-13-15----15----15-13-15----15----15----15-|--13-15----15----15----15-13-15----15----15----15-|
--12----------15----14----------15----14----12----|--------15----14----12----------15----14----12----|
--------------------------------------------------|--------------------------------------------------|
--------------------------------------------------|--------------------------------------------------|
--------------------------------------------------|--------------------------------------------------|


   S  S  S  S  S  S  S  S  S  S  S  S  S  S  S  S     S  S  S  S  S  S  S  S  S  S  S  S  S  S  S  S  
--------------------------------------------------|--------------------------------------------------|
--13-15-13-15----15----15----15-13-15-13-15----15-|--13-15----15----15----15-13-15-13-15----15----15-|
--------------15----14----12----------------15----|--------15----14----12----------------15----14----|
--------------------------------------------------|--------------------------------------------------|
--------------------------------------------------|--------------------------------------------------|
--------------------------------------------------|--------------------------------------------------|


   S  S  S  S  S  S  S  S  S  S  S  S  S  S  S  S     S  S  S  S  S  S  S  S  S  S  S  S  S  S  S  S  
--------------------------------------------------|--------------------------------------------------|
-----15-13-15----15----15-13-15----15----15----15-|--13-15----15----15----15-13-15----15----15----15-|
--12----------15----14----------15----14----12----|--------15----14----12----------15----14----12----|
--------------------------------------------------|--------------------------------------------------|
--------------------------------------------------|--------------------------------------------------|
--------------------------------------------------|--------------------------------------------------|


   S  S  S  S  S  S  S  S  S  S  S  S  S  S  S  S     S  S  S  S  S  S  S  S  S  S  S  S  S  S  S  S  
--------------------------------------------------|--------------------------------------------------|
--13-15-13-15----15----15----15-13-15-13-15----15-|--13-15----15----15----15-13-15-13-15----15----15-|
--------------15----14----12----------------15----|--------15----14----12----------------15----14----|
--------------------------------------------------|--------------------------------------------------|
--------------------------------------------------|--------------------------------------------------|
--------------------------------------------------|--------------------------------------------------|


   S  S  S  S  S  S  S  S  S  S  S  S  S  S  S  S     S  S  S  S  S  S  S  S  S  S  S  S  S  S  S  S  
--------------------------------------------------|--------------------------------------------------|
-----15-13-15----15----15-13-15----15----15----15-|--13-15----15----15----15-13-15----15----15----15-|
--12----------15----14----------15----14----12----|--------15----14----12----------15----14----12----|
--------------------------------------------------|--------------------------------------------------|
--------------------------------------------------|--------------------------------------------------|
--------------------------------------------------|--------------------------------------------------|


   S  S  S  S  S  S  S  S  S  S  S  S  S  S  S  S     S  S  S  S  S  S  S  S  S  S  S  S  S  S  S  S  
--------------------------------------------------|--------------------------------------------------|
--13-15-13-15----15----15----15-13-15-13-15----15-|--13-15----15----15----15-13-15-13-15----15----15-|
--------------15----14----12----------------15----|--------15----14----12----------------15----14----|
--------------------------------------------------|--------------------------------------------------|
--------------------------------------------------|--------------------------------------------------|
--------------------------------------------------|--------------------------------------------------|


   S  S  S  S  S  S  S  S  S  S  S  S  S  S  S  S     S  S  S  S  S  S  S  S  S  S  S  S  S  S  S  S  
--------------------------------------------------|--------------------------------------------------|
-----15-13-15----15----15-13-15----15----15----15-|--13-15----15----15----15-13-15----15----15----15-|
--12----------15----14----------15----14----12----|--------15----14----12----------15----14----12----|
--------------------------------------------------|--------------------------------------------------|
--------------------------------------------------|--------------------------------------------------|
--------------------------------------------------|--------------------------------------------------|


   S  S  S  S  S  S  S  S  S  S  S  S  S  S  S  S     S  S  S  S  S  S  S  S  S  S  S  S  S  S  S  S    
--------------------------------------------------|---------------------------------------------------||
--13-15-13-15----15----15----15-13-15-13-15----15-|--13-15----15----15----15-13-15-13-15----15----15--||
--------------15----14----12----------------15----|--------15----14----12----------------15----14----*||
--------------------------------------------------|--------------------------------------------------*||
--------------------------------------------------|---------------------------------------------------||
--------------------------------------------------|---------------------------------------------------||


Bloopy 2

     S S S S S S S S S S S S S S S S    S S S S S S S S S S S S S S S S    S S S S S S S S S S S S S S S S  
E||----------------------------------|----------------------------------|----------------------------------|
B||----------------------------------|----------------------------------|----------------------------------|
G||----7-5-7---7---7-5-7---7---7---7-|--5-7---7---7---7-5-7---7---7---7-|--5-7-5-7---7---7---7-5-7-5-7---7-|
D||--5-------8---7-------8---7---5---|------8---7---5-------8---7---5---|----------8---7---5-----------8---|
A||----------------------------------|----------------------------------|----------------------------------|
E||----------------------------------|----------------------------------|----------------------------------|


  S S S S S S S S S S S S S S S S    S S S S S S S S S S S S S S S S    S S S S S S S S S S S S S S S S  
----------------------------------|----------------------------------|----------------------------------|
----------------------------------|----------------------------------|----------------------------------|
--5-7---7---7---7-5-7-5-7---7---7-|----7-5-7---7---7-5-7---7---7---7-|--5-7---7---7---7-5-7---7---7---7-|
------8---7---5-----------8---7---|--5-------8---7-------8---7---5---|------8---7---5-------8---7---5---|
----------------------------------|----------------------------------|----------------------------------|
----------------------------------|----------------------------------|----------------------------------|


  S S S S S S S S S S S S S S S S    S S S S S S S S S S S S S S S S    S S S S S S S S S S S S S S S S  
----------------------------------|----------------------------------|----------------------------------|
----------------------------------|----------------------------------|----------------------------------|
--5-7-5-7---7---7---7-5-7-5-7---7-|--5-7---7---7---7-5-7-5-7---7---7-|----7-5-7---7---7-5-7---7---7---7-|
----------8---7---5-----------8---|------8---7---5-----------8---7---|--5-------8---7-------8---7---5---|
----------------------------------|----------------------------------|----------------------------------|
----------------------------------|----------------------------------|----------------------------------|


  S S S S S S S S S S S S S S S S    S S S S S S S S S S S S S S S S    S S S S S S S S S S S S S S S S  
----------------------------------|----------------------------------|----------------------------------|
----------------------------------|----------------------------------|----------------------------------|
--5-7---7---7---7-5-7---7---7---7-|--5-7-5-7---7---7---7-5-7-5-7---7-|--5-7---7---7---7-5-7-5-7---7---7-|
------8---7---5-------8---7---5---|----------8---7---5-----------8---|------8---7---5-----------8---7---|
----------------------------------|----------------------------------|----------------------------------|
----------------------------------|----------------------------------|----------------------------------|


  S S S S S S S S S S S S S S S S    S S S S S S S S S S S S S S S S    S S S S S S S S S S S S S S S S  
----------------------------------|----------------------------------|----------------------------------|
----------------------------------|----------------------------------|----------------------------------|
----7-5-7---7---7-5-7---7---7---7-|--5-7---7---7---7-5-7---7---7---7-|--5-7-5-7---7---7---7-5-7-5-7---7-|
--5-------8---7-------8---7---5---|------8---7---5-------8---7---5---|----------8---7---5-----------8---|
----------------------------------|----------------------------------|----------------------------------|
----------------------------------|----------------------------------|----------------------------------|


  S S S S S S S S S S S S S S S S      S S S S S S S S S S S S S S S S    S S S S S S S S S S S S S S S S  
----------------------------------||-----------------------------------|----------------------------------|
----------------------------------||-----------------------------------|----------------------------------|
--5-7---7---7---7-5-7-5-7---7---7-||*----7-5-7---7---7-5-7---7---7---7-|--5-7---7---7---7-5-7---7---7---7-|
------8---7---5-----------8---7---||*--5-------8---7-------8---7---5---|------8---7---5-------8---7---5---|
----------------------------------||-----------------------------------|----------------------------------|
----------------------------------||-----------------------------------|----------------------------------|


  S S S S S S S S S S S S S S S S    S S S S S S S S S S S S S S S S    S S S S S S S S S S S S S S S S  
----------------------------------|----------------------------------|----------------------------------|
----------------------------------|----------------------------------|----------------------------------|
--5-7-5-7---7---7---7-5-7-5-7---7-|--5-7---7---7---7-5-7-5-7---7---7-|----7-5-7---7---7-5-7---7---7---7-|
----------8---7---5-----------8---|------8---7---5-----------8---7---|--5-------8---7-------8---7---5---|
----------------------------------|----------------------------------|----------------------------------|
----------------------------------|----------------------------------|----------------------------------|


  S S S S S S S S S S S S S S S S    S S S S S S S S S S S S S S S S    S S S S S S S S S S S S S S S S  
----------------------------------|----------------------------------|----------------------------------|
----------------------------------|----------------------------------|----------------------------------|
--5-7---7---7---7-5-7---7---7---7-|--5-7-5-7---7---7---7-5-7-5-7---7-|--5-7---7---7---7-5-7-5-7---7---7-|
------8---7---5-------8---7---5---|----------8---7---5-----------8---|------8---7---5-----------8---7---|
----------------------------------|----------------------------------|----------------------------------|
----------------------------------|----------------------------------|----------------------------------|


  S S S S S S S S S S S S S S S S    S S S S S S S S S S S S S S S S    S S S S S S S S S S S S S S S S  
----------------------------------|----------------------------------|----------------------------------|
----------------------------------|----------------------------------|----------------------------------|
----7-5-7---7---7-5-7---7---7---7-|--5-7---7---7---7-5-7---7---7---7-|--5-7-5-7---7---7---7-5-7-5-7---7-|
--5-------8---7-------8---7---5---|------8---7---5-------8---7---5---|----------8---7---5-----------8---|
----------------------------------|----------------------------------|----------------------------------|
----------------------------------|----------------------------------|----------------------------------|


  S S S S S S S S S S S S S S S S    S S S S S S S S S S S S S S S S    S S S S S S S S S S S S S S S S  
----------------------------------|----------------------------------|----------------------------------|
----------------------------------|----------------------------------|----------------------------------|
--5-7---7---7---7-5-7-5-7---7---7-|----7-5-7---7---7-5-7---7---7---7-|--5-7---7---7---7-5-7---7---7---7-|
------8---7---5-----------8---7---|--5-------8---7-------8---7---5---|------8---7---5-------8---7---5---|
----------------------------------|----------------------------------|----------------------------------|
----------------------------------|----------------------------------|----------------------------------|


  S S S S S S S S S S S S S S S S    S S S S S S S S S S S S S S S S    S S S S S S S S S S S S S S S S  
----------------------------------|----------------------------------|----------------------------------|
----------------------------------|----------------------------------|----------------------------------|
--5-7-5-7---7---7---7-5-7-5-7---7-|--5-7---7---7---7-5-7-5-7---7---7-|----7-5-7---7---7-5-7---7---7---7-|
----------8---7---5-----------8---|------8---7---5-----------8---7---|--5-------8---7-------8---7---5---|
----------------------------------|----------------------------------|----------------------------------|
----------------------------------|----------------------------------|----------------------------------|


  S S S S S S S S S S S S S S S S    S S S S S S S S S S S S S S S S    S S S S S S S S S S S S S S S S  
----------------------------------|----------------------------------|----------------------------------|
----------------------------------|----------------------------------|----------------------------------|
--5-7---7---7---7-5-7---7---7---7-|--5-7-5-7---7---7---7-5-7-5-7---7-|--5-7---7---7---7-5-7-5-7---7---7-|
------8---7---5-------8---7---5---|----------8---7---5-----------8---|------8---7---5-----------8---7---|
----------------------------------|----------------------------------|----------------------------------|
----------------------------------|----------------------------------|----------------------------------|


  S S S S S S S S S S S S S S S S    S S S S S S S S S S S S S S S S    S S S S S S S S S S S S S S S S  
----------------------------------|----------------------------------|----------------------------------|
----------------------------------|----------------------------------|----------------------------------|
----7-5-7---7---7-5-7---7---7---7-|--5-7---7---7---7-5-7---7---7---7-|--5-7-5-7---7---7---7-5-7-5-7---7-|
--5-------8---7-------8---7---5---|------8---7---5-------8---7---5---|----------8---7---5-----------8---|
----------------------------------|----------------------------------|----------------------------------|
----------------------------------|----------------------------------|----------------------------------|


  S S S S S S S S S S S S S S S S    S S S S S S S S S S S S S S S S    S S S S S S S S S S S S S S S S  
----------------------------------|----------------------------------|----------------------------------|
----------------------------------|----------------------------------|----------------------------------|
--5-7---7---7---7-5-7-5-7---7---7-|----7-5-7---7---7-5-7---7---7---7-|--5-7---7---7---7-5-7---7---7---7-|
------8---7---5-----------8---7---|--5-------8---7-------8---7---5---|------8---7---5-------8---7---5---|
----------------------------------|----------------------------------|----------------------------------|
----------------------------------|----------------------------------|----------------------------------|


  S S S S S S S S S S S S S S S S    S S S S S S S S S S S S S S S S    S S S S S S S S S S S S S S S S  
----------------------------------|----------------------------------|----------------------------------|
----------------------------------|----------------------------------|----------------------------------|
--5-7-5-7---7---7---7-5-7-5-7---7-|--5-7---7---7---7-5-7-5-7---7---7-|----7-5-7---7---7-5-7---7---7---7-|
----------8---7---5-----------8---|------8---7---5-----------8---7---|--5-------8---7-------8---7---5---|
----------------------------------|----------------------------------|----------------------------------|
----------------------------------|----------------------------------|----------------------------------|


  S S S S S S S S S S S S S S S S    S S S S S S S S S S S S S S S S    S S S S S S S S S S S S S S S S  
----------------------------------|----------------------------------|----------------------------------|
----------------------------------|----------------------------------|----------------------------------|
--5-7---7---7---7-5-7---7---7---7-|--5-7-5-7---7---7---7-5-7-5-7---7-|--5-7---7---7---7-5-7-5-7---7---7-|
------8---7---5-------8---7---5---|----------8---7---5-----------8---|------8---7---5-----------8---7---|
----------------------------------|----------------------------------|----------------------------------|
----------------------------------|----------------------------------|----------------------------------|


  S S S S S S S S S S S S S S S S    S S S S S S S S S S S S S S S S    S S S S S S S S S S S S S S S S  
----------------------------------|----------------------------------|----------------------------------|
----------------------------------|----------------------------------|----------------------------------|
----7-5-7---7---7-5-7---7---7---7-|--5-7---7---7---7-5-7---7---7---7-|--5-7-5-7---7---7---7-5-7-5-7---7-|
--5-------8---7-------8---7---5---|------8---7---5-------8---7---5---|----------8---7---5-----------8---|
----------------------------------|----------------------------------|----------------------------------|
----------------------------------|----------------------------------|----------------------------------|


  S S S S S S S S S S S S S S S S    S S S S S S S S S S S S S S S S    S S S S S S S S S S S S S S S S  
----------------------------------|----------------------------------|----------------------------------|
----------------------------------|----------------------------------|----------------------------------|
--5-7---7---7---7-5-7-5-7---7---7-|----7-5-7---7---7-5-7---7---7---7-|--5-7---7---7---7-5-7---7---7---7-|
------8---7---5-----------8---7---|--5-------8---7-------8---7---5---|------8---7---5-------8---7---5---|
----------------------------------|----------------------------------|----------------------------------|
----------------------------------|----------------------------------|----------------------------------|


  S S S S S S S S S S S S S S S S    S S S S S S S S S S S S S S S S    
----------------------------------|-----------------------------------||
----------------------------------|-----------------------------------||
--5-7-5-7---7---7---7-5-7-5-7---7-|--5-7---7---7---7-5-7-5-7---7---7-*||
----------8---7---5-----------8---|------8---7---5-----------8---7---*||
----------------------------------|-----------------------------------||
----------------------------------|-----------------------------------||


BASS

G||-------|-------|-------|-------|-------|-------|-------|-------|-------|-------|-------|-------|-------|-------|-------|
D||-------|-------|-------|-------|-------|-------|-------|-------|-------|-------|-------|-------|-------|-------|-------|
A||-------|-------|-------|-------|-------|-------|-------|-------|-------|-------|-------|-------|-------|-------|-------|
E||-------|-------|-------|-------|-------|-------|-------|-------|-------|-------|-------|-------|-------|-------|-------|
B||-------|-------|-------|-------|-------|-------|-------|-------|-------|-------|-------|-------|-------|-------|-------|


  Q    Q     S S S  S E  E       S S S S S S S S S S S S S S S S    S S  S S S S  S S S S  S S S  S S  S  
----------------------------||-----------------------------------|---------------------------------------|
------------10-7---10-7--L--||*------8-------8-------8-----8---8-|------10-------10-------10-----10---10-|
-----------------8----------||---6-6---6-6-6---6-6-6---6-6---6---|--8-8----8-8-8----8-8-8----8-8----8----|
----------------------------||*----------------------------------|---------------------------------------|
----------------------------||-----------------------------------|---------------------------------------|


   S S  S  S  S  S  S  S  S S  S  S  S  S  S  S     S  S  S  S  S  S  S  S  S  S  S  S  S  S  S  S  
------------------------------------------------|-----10----10----10----14-10----------10-14-10----|
-----8-12-------12----------8-12-------12-------|--------10----------10-------10----10----------10-|
--10------10-10----10-10-10------10-10----10-10-|--12----------12----------------12----------------|
------------------------------------------------|--------------------------------------------------|
------------------------------------------------|--------------------------------------------------|


  S S S S S S S S S S S S S S S S    S S  S S S S  S S S S  S S S  S S  S     S S  S  S  S  S  S  S  S S  S  S  S  S  S  S  
----------------------------------|---------------------------------------|------------------------------------------------|
------8-------8-------8-----8---8-|------10-------10-------10-----10---10-|-----8-12-------12----------8-12-------12-------|
--6-6---6-6-6---6-6-6---6-6---6---|--8-8----8-8-8----8-8-8----8-8----8----|--10------10-10----10-10-10------10-10----10-10-|
----------------------------------|---------------------------------------|------------------------------------------------|
----------------------------------|---------------------------------------|------------------------------------------------|


   S S  S S  S S  S  S  S  S  S  S  S  S  S  S    S S S S S S S S S S S S S S S S    S S  S S S S  S S S S  S S S  S S  S  
-----------------------12----14----15----17----|----------------------------------|---------------------------------------|
-----8-12-8----8-12-12----12----12----12----12-|------8-------8-------8-----8---8-|------10-------10-------10-----10---10-|
--10--------10---------------------------------|--6-6---6-6-6---6-6-6---6-6---6---|--8-8----8-8-8----8-8-8----8-8----8----|
-----------------------------------------------|----------------------------------|---------------------------------------|
-----------------------------------------------|----------------------------------|---------------------------------------|


   S S  S  S  S  S  S  S  S S  S  S  S  S  S  S     S  S  S  S  S  S  S  S  S  S  S  S  S  S  S  S  
------------------------------------------------|-----10----10----10----14-10----------10-14-10----|
-----8-12-------12----------8-12-------12-------|--------10----------10-------10----10----------10-|
--10------10-10----10-10-10------10-10----10-10-|--12----------12----------------12----------------|
------------------------------------------------|--------------------------------------------------|
------------------------------------------------|--------------------------------------------------|


  S S S S S S S S S S S S S S S S    S S  S S S S  S S S S  S S S  S S  S     S S  S  S  S  S  S  S  S S  S  S  S  S  S  S  
----------------------------------|---------------------------------------|------------------------------------------------|
------8-------8-------8-----8---8-|------10-------10-------10-----10---10-|-----8-12-------12----------8-12-------12-------|
--6-6---6-6-6---6-6-6---6-6---6---|--8-8----8-8-8----8-8-8----8-8----8----|--10------10-10----10-10-10------10-10----10-10-|
----------------------------------|---------------------------------------|------------------------------------------------|
----------------------------------|---------------------------------------|------------------------------------------------|


   S S  S S  S S  S  S  S  S  S  S  S  S  S  S                        S S S S S S S S S S S S S S S S  
-----------------------12----14----15----17----|----|----|----|----|----------------------------------|
-----8-12-8----8-12-12----12----12----12----12-|----|----|----|----|------8-------8-------8-----8---8-|
--10--------10---------------------------------|----|----|----|----|--6-6---6-6-6---6-6-6---6-6---6---|
-----------------------------------------------|----|----|----|----|----------------------------------|
-----------------------------------------------|----|----|----|----|----------------------------------|


  S S  S S S S  S S S S  S S S  S S  S     S S  S  S  S  S  S  S  S S  S  S  S  S  S  S  
---------------------------------------|------------------------------------------------|
------10-------10-------10-----10---10-|-----8-12-------12----------8-12-------12-------|
--8-8----8-8-8----8-8-8----8-8----8----|--10------10-10----10-10-10------10-10----10-10-|
---------------------------------------|------------------------------------------------|
---------------------------------------|------------------------------------------------|


   S S  S S  S S  S  S  S  S  S  S  S  S  S  S    S S S S S S S S S S S S S S S S    S S  S S S S  S S S S  S S S  S S  S  
-----------------------12----14----15----17----|----------------------------------|---------------------------------------|
-----8-12-8----8-12-12----12----12----12----12-|------8-------8-------8-----8---8-|------10-------10-------10-----10---10-|
--10--------10---------------------------------|--6-6---6-6-6---6-6-6---6-6---6---|--8-8----8-8-8----8-8-8----8-8----8----|
-----------------------------------------------|----------------------------------|---------------------------------------|
-----------------------------------------------|----------------------------------|---------------------------------------|


   S S  S  S  S  S  S  S  S S  S  S  S  S  S  S     S  S  S  S  S  S  S  S  S  S  S  S  S  S  S  S  
------------------------------------------------|-----10----10----10----14-10----------10-14-10----|
-----8-12-------12----------8-12-------12-------|--------10----------10-------10----10----------10-|
--10------10-10----10-10-10------10-10----10-10-|--12----------12----------------12----------------|
------------------------------------------------|--------------------------------------------------|
------------------------------------------------|--------------------------------------------------|


  S S S S S S S S S S S S S S S S    S S  S S S S  S S S S  S S S  S S  S     S S  S  S  S  S  S  S  S S  S  S  S  S  S  S  
----------------------------------|---------------------------------------|------------------------------------------------|
------8-------8-------8-----8---8-|------10-------10-------10-----10---10-|-----8-12-------12----------8-12-------12-------|
--6-6---6-6-6---6-6-6---6-6---6---|--8-8----8-8-8----8-8-8----8-8----8----|--10------10-10----10-10-10------10-10----10-10-|
----------------------------------|---------------------------------------|------------------------------------------------|
----------------------------------|---------------------------------------|------------------------------------------------|


   S S  S S  S S  S  S  S  S  S  S  S  S  S  S    S S S S S S S S S S S S S S S S    S S  S S S S  S S S S  S S S  S S  S  
-----------------------12----14----15----17----|----------------------------------|---------------------------------------|
-----8-12-8----8-12-12----12----12----12----12-|------8-------8-------8-----8---8-|------10-------10-------10-----10---10-|
--10--------10---------------------------------|--6-6---6-6-6---6-6-6---6-6---6---|--8-8----8-8-8----8-8-8----8-8----8----|
-----------------------------------------------|----------------------------------|---------------------------------------|
-----------------------------------------------|----------------------------------|---------------------------------------|


   S S  S  S  S  S  S  S  S S  S  S  S  S  S  S     S  S  S  S  S  S  S  S  S  S  S  S  S  S  S  S  
------------------------------------------------|-----10----10----10----14-10----------10-14-10----|
-----8-12-------12----------8-12-------12-------|--------10----------10-------10----10----------10-|
--10------10-10----10-10-10------10-10----10-10-|--12----------12----------------12----------------|
------------------------------------------------|--------------------------------------------------|
------------------------------------------------|--------------------------------------------------|


  S S S S S S S S S S S S S S S S    S S  S S S S  S S S S  S S S  S S  S     S S  S  S  S  S  S  S  S S  S  S  S  S  S  S  
----------------------------------|---------------------------------------|------------------------------------------------|
------8-------8-------8-----8---8-|------10-------10-------10-----10---10-|-----8-12-------12----------8-12-------12-------|
--6-6---6-6-6---6-6-6---6-6---6---|--8-8----8-8-8----8-8-8----8-8----8----|--10------10-10----10-10-10------10-10----10-10-|
----------------------------------|---------------------------------------|------------------------------------------------|
----------------------------------|---------------------------------------|------------------------------------------------|


   S S  S S  S S  S  S  S  S  S  S  S  S  S  S    
-----------------------12----14----15----17-----||
-----8-12-8----8-12-12----12----12----12----12-*||
--10--------10----------------------------------||
-----------------------------------------------*||
------------------------------------------------||




Duration Legend
---------------
W - whole
H - half
Q - quarter
E - 8th
S - 16th
T - 32nd
X - 64th
. - note dotted
|-n-|  - n-tuplets


Tablature Legend
----------------
L - tied note
> - accentuded note

Login or Register to remove this ad.

3 comments on Sakura Sakura ~ Japanize Dream

dat bass

5

dat bass

(No subject)

Wow!

5

Man this must have been a pain to tab! Fantastic work!