The Maid and the Pocket Watch of Blood (Touhou 6: Embodiment of Scarlet Devil) Guitar Tab

Submitted: Sep 12, 2012 by ChelseaRare (Last updated: Nov 04, 2013)

5
Average: 5 (8 votes)
Download | Listen
Game: Touhou 6: Embodiment of Scarlet Devil
Composer(s): ZUN
Style: Arrangement, Fingerstyle
Series: Touhou

AutoScroll: Slow | Medium | Fast
Touhou 6: Embodiment of Scarlet Devil
The Maid and the Pocket Watch of Blood                      
Composed by ZUN
Arranged by Chelsea Intal

Drop D Tuning (DADGBE)

Starting tempo: 177 BPM

Play all the way through to the end of the measure marked "DS AL CODA" then go back to the measure marked *SEGNO." 
This time play to the end of the measure marked "DA CODA" then skip down the the measure marked *CODA*


     |--3--|  |--3--|  |--3--|     |--3--|  |--3--|  |--3--|   
     E  E  E  E  E  E  E  E  E     E  E  E  E  E  E  E  E  E   
E||-----------------------------|--0--------0--------0--------|
B||--2--------2--------2--------|-----0--------0--------0-----|
G||-----2--------2--------2-----|-----------------------------|
D||--------4--------4--------4--|--------6--------6--------6--|
A||-----------------------------|--4--------------------------|
D||--4--------------------------|-----------------------------|


  |--3--|  |--3--|  |--3--|     |--3--|  |--3--|  |--3--|   
  E  E  E  E  E  E  E  E  E     E  E  E  E  E  E  E  E  E   
--2--------2--------2--------|--0--------0--------0--------|
-----2--------2--------2-----|-----0--------0--------0-----|
--------2--------2--------2--|-----------------------------|
--4--------------------------|--6-----6--------6--------6--|
-----------------------------|-----------------------------|
-----------------------------|-----------------------------|


  |--3--|  |--3--|  |--3--|     |--3--|  |--3--|  |--3--|   
  E  E  E  E  E  E  E  E  E     E  E  E  E  E  E  E  E  E   
-----------------------------|--0--------0--------0--------|
--2--------2--------2--------|-----0--------0--------0-----|
-----2--------2--------2-----|-----------------------------|
--------4--------4--------4--|--------6--------6--------6--|
-----------------------------|-----------------------------|
--4--------------------------|--6--------------------------|


  |--3--|  |--3--|  |--3--|     |--3--|  |--3--|  |--3--|   
  E  E  E  E  E  E  E  E  E     E  E  E  E  E  E  E  E  E   
--2--------2--------2--------|--0--------0--------0--------|
-----2--------2--------2-----|-----0--------0--------0-----|
--------2--------2--------2--|-----------------------------|
-----------------------------|--------6--------6--------6--|
--0--------------------------|-----------------------------|
-----------------------------|--6--------------------------|


  |--3--|  |--3--|  |--3--|     |--3--|  |--3--|  |--3--|   
  E  E  E  E  E  E  E  E  E     E  E  E  E  E  E  E  E  E   
-----------------------------|--0--------0--------0--------|
--2--------2--------2--------|-----0--------0--------0-----|
-----2--------2--------2-----|-----------------------------|
--------4--------4--------4--|--------6--------6--------6--|
-----------------------------|--4--------------------------|
--4--------------------------|-----------------------------|


  |--3--|  |--3--|  |--3--|     |--3--|  |--3--|  |--3--|   
  E  E  E  E  E  E  E  E  E     E  E  E  E  E  E  E  E  E   
--2--------2--------2--------|--0--------0--------0--------|
-----2--------2--------2-----|-----0--------0--------0-----|
--------2--------2--------2--|-----------------------------|
--4--------------------------|--6-----6--------6--------6--|
-----------------------------|-----------------------------|
-----------------------------|-----------------------------|


  |--3--|  |--3--|  |--3--|     |--3--|  |--3--|  |--3--|   
  E  E  E  E  E  E  E  E  E     E  E  E  E  E  E  E  E  E   
-----------------------------|--0--------0--------0--------|
--2--------2--------2--------|-----0--------0--------0-----|
-----2--------2--------2-----|-----------------------------|
--------4--------4--------4--|--------6--------6--------6--|
-----------------------------|-----------------------------|
--0-----------------0--------|--6-----------------6--------|


  |--3--|  |--3--|  |--3--|     |--3--|  |--3--|  |--3--|   
  E  E  E  E  E  E  E  E  E     E  E  E  E  E  E  E  E  E   
--2--------2--------2--------|-----------------------------|
-----2--------2--------2-----|--6--------6--------6--------|
--------2--------2--------2--|-----4--------4--------4-----|
-----------------------------|--------6--------6--------6--|
--0-----------------0--------|--4-----------------4--------|
-----------------------------|-----------------------------|


  |--3--|  |--3--|  |--3--|     |--3--|  |--3--|  |--3--|   
  E  E  E  E  E  E  E  E  E     E  E  E  E  E  E  E  E  E   
-----------------------------|--0--------0--------0--------|
--2--------2--------2--------|-----0--------0--------0-----|
-----2--------2--------2-----|-----------------------------|
--------4--------4--------4--|--------6--------6--------6--|
-----------------------------|--4--------------------------|
--4--------4--------4--------|-----------------------------|


  |--3--|  |--3--|  |--3--|     |--3--|  |--3--|  |--3--|   
  E  E  E  E  E  E  E  E  E     E  E  E  E  E  E  E  E  E   
--2--------2--------2--------|--0--------0--------0--------|
-----2--------2--------2-----|-----0--------0--------0-----|
--------2--------2--------2--|-----------------------------|
-----------------------------|--------6--------6--------6--|
-----------------------------|-----------------------------|
--4--------4--------4--------|--6--------------------------|


  |--3--|  |--3--|  |--3--|     |--3--|  |--3--|  |--3--|   
  E  E  E  E  E  E  E  E  E     E  E  E  E  E  E  E  E  E   
-----------------------------|--0--------0--------0--------|
--2--------2--------2--------|-----0--------0--------0-----|
-----2--------2--------2-----|-----------------------------|
--------4--------4--------4--|--------6--------6--------6--|
-----------------------------|--4--------------------------|
--4--------4--------4--------|-----------------------------|


  |--3--|  |--3--|  |--3--|     |--3--|  |--3--|  |--3--|   
  E  E  E  E  E  E  E  E  E     E  E  E  E  E  E  E  E  E   
--2--------2--------2--------|--0--------0--------0--------|
-----2--------2--------2-----|-----0--------0--------0-----|
--------2--------2--------2--|-----------------------------|
-----------------------------|--------6--------6--------6--|
-----------------------------|-----------------------------|
--4--------4--------4--------|--6--------------------------|


  |--3--|  |--3--|  |--3--|     |--3--|  |--3--|  |--3--|   
  E  E  E  E  E  E  E  E  E     E  E  E  E  E  E  E  E  E   
-----------------------------|--0--------0--------0--------|
--2--------2--------2--------|-----0--------0--------0-----|
-----2--------2--------2-----|-----------------------------|
--------4--------4--------4--|--------6--------6--------6--|
-----------4-----------------|-----------------------------|
--0-----------------0--------|--0--------0--------0--------|


  |--3--|  |--3--|  |--3--|     |--3--|  |--3--|  |--3--|   
  E  E  E  E  E  E  E  E  E     E  E  E  E  E  E  E  E  E   
--2--------2--------2--------|--0--------0--------0--------|
-----2--------2--------2-----|-----0--------0--------0-----|
--------2--------2--------2--|-----------------------------|
-----------------------------|--------6--------6--------6--|
-----------4-----------------|-----------------------------|
--0-----------------0--------|--0--------0--------0--------|


  |--3--|  |--3--|  |--3--|     |--3--|  |--3--|  |--3--|   
  E  E  E  E  E  E  E  E  E     E  E  E  E  E  E  E  E  E   
-----------------------------|--0--------0--------0--------|
--2--------2--------2--------|-----0--------0--------0-----|
-----2--------2--------2-----|-----------------------------|
--------4--------4--------4--|--------6--------6--------6--|
-----------4-----------------|-----------------------------|
--0-----------------0--------|--0--------0--------0--------|


  |--3--|  |--3--|  |--3--|                                                  
  E  E  E  E  E  E  E  E  E     Q    E  E  E  E     E  E  E  E  E  E  E  E   
--2--------2--------2--------|--1----------------|--------------2-----------|
-----2--------2--------2-----|--0-------------0--|--2-----------2-----------|
--------2--------2--------2--|----------1--2-----|--2-----------2-----------|
-----------------------------|-------4-----------|--4-----------------------|
-----------4-----------------|-------------------|--------4-----------4-----|
--0-----------------0--------|--3----------------|--4--4-----4--4--4-----4--|


  E  E  E  E  E  E  E  E     E  E  E  E  E  E  E  E   
--4-----------5-----------|--------------2-----------|
--2-----------------------|--2-----------2-----------|
--2-----------6-----------|--2-----------2-----------|
--------------------------|--4-----------------------|
--------4-----------4-----|--------0-----------0-----|
--4--4-----4--4--4-----4--|--0--0-----0--0--0-----0--|


  E  E  E  E  E  E  E  E     E  E  E  E  E  E  E  E   
--4-----------5-----5--4--|--L--L-----0--------------|
--2-----------------------|--------------------0-----|
--2-----------6-----6--4--|--L--L-----2--------2-----|
--------------------------|--------------------------|
--------0-----------0-----|--------2-----------2-----|
--0--0-----0--0--0-----0--|--2--2-----2--2--2-----2--|


  E  E  E  E  E  E  E  E     E  E  E  E  E  E  E  E   
--------------------------|--------------------------|
--0-----------------------|--------------------------|
--2-----------------------|--2-----------------------|
--------------------------|--4-----------------------|
--------2-----------2-----|--------4-----4--------4--|
--2--2-----2--2--2-----2--|--4--4-----4-----4--4-----|


  E  E  E  E  E  E  E  E     E  E  E  E  E  E  E  E   
--------2--------2-----4--|--------------2-----------|
--------------------------|--2-----------2-----------|
--2--2-----2--2-----4-----|--2-----------2-----------|
--------------------------|--4-----------------------|
--------4-----------4-----|--------4-----------4-----|
--4--4-----4--4--4-----4--|--4--4-----4--4--4-----4--|


  E  E  E  E  E  E  E  E     E  E  E  E  E  E  E  E   
--4-----------5-----------|--------------2-----------|
--2-----------------------|--2-----------2-----------|
--2-----------6-----------|--2-----------2-----------|
--------------------------|--4-----------------------|
--------4-----------4-----|--------0-----------0-----|
--4--4-----4--4--4-----4--|--0--0-----0--0--0-----0--|


  E  E  E  E  E  E  E  E     E  E  E  E  E  E  E  E   
--4-----------5-----5--4--|-----------0--------------|
--2-----------------------|--------------------0-----|
--2-----------6-----6--4--|-----------1--------1-----|
--------------------------|--------------------------|
--------0-----------0-----|--------2-----------2-----|
--0--0-----0--0--0-----0--|--2--2-----2--2--2-----2--|


  E  E  E  E  E  E  E  E     E  E  E  E  E  E  E  E   
--------------------------|--------------------------|
--0-----------------------|--2-----------------------|
--1-----------------------|--2-----------------------|
--------------------------|--------------------------|
--------2-----------2-----|--------4-----4--------4--|
--2--2-----2--2--2-----2--|--4--4-----4-----4--4-----|


  E  E  E  E  E  E  E  E     E  E  E  E  E  E  E  E   
--2-----2-----2-----2-----|--------------------------|
--------------------------|--------------------------|
-----2-----2-----2-----2--|--------------------------|
--------------------------|--4-----------7-----------|
--------4-----------4-----|--------4-----------4-----|
--4--4-----4--4--4-----4--|--4--4-----4--4--4-----4--|


  E  E  E  E  E  E  E  E     E  E  E  E  E  E  E  E   
--------------------------|--------------------------|
--------------------------|--------------------------|
--------------------------|--------------------------|
--6--------------------4--|--L--L--L-----7--L--L--L--|
--------7-----4--7--4-----|--------4-----------4-----|
--4--4-----4-----4-----4--|--4--4-----4--4--4-----4--|


  E  E  E  E  E  E  E  E     E  E  E  E  E  E  E  E   
--------------------------|--------------------------|
--------------------------|--------------------------|
--------------4--6--------|--------------2-----------|
--6-----7-----------------|--4-----------4-----------|
--------4-----------4-----|--0-----0-----------0-----|
--4--4-----4--4--4-----4--|--0--0-----0--0--0-----0--|


  E  E  E  E  E  E  E  E     E  E  E  E  E  E  E  E   
--------------------------|--------------------------|
-----------------------2--|--------------------------|
--1--------------------2--|--------------------------|
--2-----2--------2-----4--|--------------------------|
--------0-----4-----0-----|--------0-----------0-----|
--0--0-----0-----0-----0--|--0--0-----0--0--0-----0--|


  E  E  E  E  E  E  E  E     E  E  E  E  E  E  E  E   
--------------------------|--------------------------|
--------------------------|--------------------------|
--------------------------|--------------------------|
--------------------------|--4-----------7-----------|
--------0-----0--------0--|--------4-----------4-----|
--0--0-----0-----0--2-----|--4--4-----4--4--4-----4--|


  E  E  E  E  E  E  E  E     E  E  E  E  E  E  E  E   
--------------------------|--------------------------|
--------------------------|--------------------------|
--------------------------|--------------------------|
--6--------------------4--|--------------7-----------|
--------7-----4--7--4-----|--------4-----------4-----|
--4--4-----4-----4-----4--|--4--4-----4--4--4-----4--|


  E  E  E  E  E  E  E  E     E  E  E  E  E  E  E  E   
-----------0--------------|--------------------------|
--------0-----0-----------|--------------------------|
--------------------------|--------------------2-----|
--6--7-----------7--6--7--|--------------------------|
--------4-----------4-----|--------0-----4-----0-----|
--4--4-----4--4--4-----4--|--0--0-----0--0--0-----0--|


  E  E  E  E  E  E  E  E     E  E  E  E  E  E  E  E     H        H         
--------------------------|--------------------------|--------------------|
--------------------------|--------------------------|--------------------|
--1-----------------------|--------------------------|-----------2--------|
--------2--------2-----4--|--------------------------|--3-----------------|
--------0-----4-----0-----|--------0-----------0-----|--4--------4--------|
--0--0-----0--0--0-----0--|--0--0-----0--0--0-----0--|--------------------|


    E  E  E  E  E  E  E  E     E  E  E  E  E  E  E  E   
|---------------------------|--------------------4-----|
|---------------------------|--2-----4-----6-----4-----|
|*--3-----------5--------5--|--------------------------|
|*--------------------8-----|--------3-----------------|
|---------4-----------6-----|--1--1-----1--------6-----|
|---4--4-----4--6--6-----6--|--------------6--6-----6--|


  E  E  E  Q    E  E  E     E  E  E  E  E  E  E  E     E  E  E  E  E  E  E  E   
--6----------------------|--------------------------|--------------------------|
--6----------------------|--------------------------|--------------------1-----|
-----------6----5--------|--------1-----3-----------|--3-----------2-----------|
-----------8-------8--6--|--3-----3-----------------|-----0-----0--------------|
-----4----------6--------|--1--1-----1--------6-----|-----------------3-----3--|
--4-----4--6-------6--6--|--------------6--6-----6--|--5-----5-----3-----3-----|


  E  E  E  E  E  E  E  E     E  E  E  E  E  E  E  E   
--------------------------|--------------------------|
--------------------------|--------3-----------1-----|
--0-----------0--2-----3--|--------------2-----------|
--------------------------|-----0-----0--------------|
-----1-----1-----1-----1--|-----------------3-----3--|
--1-----1-----1-----1-----|--5-----5-----3-----3-----|


  E  E  E  E  E  E  E  E       H        Q    E  E     Q    Q    Q    Q     
---------------------------||----------------------|-----------------4----|
---------------------------||----------------------|--2----4----6----4----|
--0-----------------0--2--*||--3--------5----3--5--|----------------------|
--------------------------*||----------------------|-------3--------------|
-----1-----1-----1-----1---||----------------6-----|--1--------------6----|
--1-----1-----1-----1------||--4--------6-------6--|------------6---------|


              |--3--|                                                     
  Q.     Q    S  S  S E  E     E  E  Q    H           H        Q    Q     
--6-------------------------|----------------------|---------------------|
--6-------------------------|----------------------|----------------1----|
---------6----5h-6p-5-------|--------1----3--------|--3--------2---------|
---------8------------8--6--|--3--L--3-------------|---------------------|
--------------6-------------|--1-----1-------------|---------------------|
--4------6------------6--6--|-------------6--------|--5--------3----3----|


  H        E  Q    E     E  E  Q    Q    Q       H        Q    Q     
----------------------|-----------------------|---------------------|
----------------------|--L--L--3---------1----|---------------------|
--0--------0--2----3--|-------------2---------|--0--------0----2----|
----------------------|-----------------------|---------------------|
--------------1----1--|--L--L-----------------|----------------1----|
--1--------1----------|--------5----3----3----|--1--------1---------|


  E  E  E  E  E  E  E  E     E  E  E  E  E  E  E  E     E  E  E  Q    E  E  E   
--------------------------|--------------------4-----|--6----------------------|
--------------------------|--2-----4-----6-----4-----|--6----------------------|
--3-----------5-----3--5--|--------------------------|-----------6----5--------|
--------------------------|--------3-----------------|-----------8-------8--6--|
--------4-----------6-----|--1--1-----1--------6-----|-----4----------6--------|
--4--4-----4--6--6-----6--|--------------6--6-----6--|--4-----4--6-------6--6--|


  E  E  E  E  E  E  E  E     E  E  E  E  E  E  E  E   
--------------------------|--------------------------|
--------------------------|--------------------1-----|
--------1-----3-----------|--3-----------2-----------|
--3-----3-----------------|-----0-----0--------------|
--1--1-----1--------6-----|-----------------3-----3--|
--------------6--6-----6--|--5-----5-----3-----3-----|


  E  E  E  E  E  E  E  E     E  E  E  E  E  E  E  E   
--------------------------|--------------------------|
--------------------------|--------3-----------1-----|
--0-----------0--2-----3--|--------------2-----------|
--------------------------|-----0-----0--------------|
-----1-----1-----1-----1--|-----------------3-----3--|
--1-----1-----1-----1-----|--5-----5-----3-----3-----|


                             |--3--|  |--3--|  |--3--|   
  E  E  E  E  E  E  E  E     E  E  E  E  E  E  E  E  E   
--------------------------|-----------------------------|
--------------------------|--2--------2--------2--------|
--0-----------------0--2--|-----2--------2--------2-----|
--------------------------|--------4--------4--------4--|
-----1-----1-----1-----1--|-----------------------------|
--1-----1-----1-----1-----|--4--------------------------|


  |--3--|  |--3--|  |--3--|     |--3--|  |--3--|  |--3--|   
  E  E  E  E  E  E  E  E  E     E  E  E  E  E  E  E  E  E   
--0--------0--------0--------|--2--------2--------2--------|
-----0--------0--------0-----|-----2--------2--------2-----|
-----------------------------|--------2--------2--------2--|
--------6--------6--------6--|--4--------------------------|
--4--------------------------|-----------------------------|
-----------------------------|-----------------------------|


  |--3--|  |--3--|  |--3--|     |--3--|  |--3--|  |--3--|   
  E  E  E  E  E  E  E  E  E     E  E  E  E  E  E  E  E  E   
--0--------0--------0--------|-----------------------------|
-----0--------0--------0-----|--2--------2--------2--------|
-----------------------------|-----2--------2--------2-----|
--6-----6--------6--------6--|--------4--------4--------4--|
-----------------------------|-----------------------------|
-----------------------------|--4--------------------------|


  |--3--|  |--3--|  |--3--|     |--3--|  |--3--|  |--3--|   
  E  E  E  E  E  E  E  E  E     E  E  E  E  E  E  E  E  E   
--0--------0--------0--------|--2--------2--------2--------|
-----0--------0--------0-----|-----2--------2--------2-----|
-----------------------------|--------2--------2--------2--|
--------6--------6--------6--|-----------------------------|
-----------------------------|--0--------------------------|
--6--------------------------|-----------------------------|


  |--3--|  |--3--|  |--3--|     |--3--|  |--3--|  |--3--|   
  E  E  E  E  E  E  E  E  E     E  E  E  E  E  E  E  E  E   
--0--------0--------0--------|-----------------------------|
-----0--------0--------0-----|--2--------2--------2--------|
-----------------------------|-----2--------2--------2-----|
--------6--------6--------6--|--------4--------4--------4--|
-----------------------------|-----------------------------|
--6--------------------------|--4--------------------------|


  |--3--|  |--3--|  |--3--|     |--3--|  |--3--|  |--3--|   
  E  E  E  E  E  E  E  E  E     E  E  E  E  E  E  E  E  E   
--0--------0--------0--------|--2--------2--------2--------|
-----0--------0--------0-----|-----2--------2--------2-----|
-----------------------------|--------2--------2--------2--|
--------6--------6--------6--|--4--------------------------|
--4--------------------------|-----------------------------|
-----------------------------|-----------------------------|


  |--3--|  |--3--|  |--3--|     |--3--|  |--3--|  |--3--|   
  E  E  E  E  E  E  E  E  E     E  E  E  E  E  E  E  E  E   
--0--------0--------0--------|-----------------------------|
-----0--------0--------0-----|--2--------2--------2--------|
-----------------------------|-----2--------2--------2-----|
--6-----6--------6--------6--|--------4--------4--------4--|
-----------------------------|-----------------------------|
-----------------------------|--4--------------------------|


  |--3--|  |--3--|  |--3--|     |--3--|  |--3--|  |--3--|   
  E  E  E  E  E  E  E  E  E     E  E  E  E  E  E  E  E  E   
--0--------0--------0--------|--2--------2--------2--------|
-----0--------0--------0-----|-----2--------2--------2-----|
-----------------------------|--------2--------2--------2--|
--------6--------6--------6--|-----------------------------|
-----------------------------|--0--------------------------|
--6--------------------------|-----------------------------|


                                ^              
  |--3--|  |--3--|  |--3--|                    
  E  E  E  E  E  E  E  E  E     H.             
--0--------0--------0--------|--2------------||
-----0--------0--------0-----|--2------------||
-----------------------------|--2------------||
--------6--------6--------6--|--4------------||
-----------------------------|---------------||
--6--------------------------|--4------------||




Duration Legend
---------------
W - whole
H - half
Q - quarter
E - 8th
S - 16th
T - 32nd
X - 64th
. - note dotted
|-n-|  - n-tuplets


Tablature Legend
----------------
L - tied note
x - dead note
g - grace note
(n) - ghost note
> - accentuded note
NH - natural harmonic
AH - artificial harmonic
TH - tapped harmonic
SH - semi harmonic
PH - pitch harmonic
h - hammer on
p - pull off
b - bend
br - bendRelease
pb - preBend
pbr - preBendRelease
brb - bendReleaseBend
\n/ - tremolo bar dip
\n - tremolo bar dive
-/n - tremolo bar Release up
/n\ - tremolo bar inverted dip
/n - tremolo bar return
-\n - tremolo bar Release down
S - shift slide
s - legato slide
/ -  slide into from below or out of upwards
\ -  slide into from above or out of downwards
~ - vibrato
W - wide vibrato
tr - trill
TP - tremolo picking
T - tapping
S - slap
P - pop
< - fade in
^ - brush up
v - brush down
Login or Register to remove this ad.

9 comments on The Maid and the Pocket Watch of Blood

to be honest i didnt think

5

to be honest i didnt think this was going to be any good
but holy crap great job!!

never heard the song before

5

never heard the song before but the arrangement is awesome!

yesz~!

yesz~!

Whoa,awesome.

5

Whoa, this is awesome! Very nice job! The midi is great also! Cheers!~ =D

I felt pretty skeptical about

I felt pretty skeptical about sharing this, so the feedback is very much appreciated.

Thanks everyone!

The arrangement is great, no

The arrangement is great, no two ways about it. There are parts of this song that kind of bore me (that has to do with the composer, not you), but others that are very beautiful. Great job, definitely adding this to my favorites.

I like the changes, it feel

5

I like the changes, it feel less like a left-hand-rape now.

Revisting some of my old tabs

Revisting some of my old tabs and all I gotta say about this one is what the hell was I on when I made it xD

I don't remember struggling as much with this back then as I am now. I've got some practicing to do!

I liked this one =)

5

I liked this one =)