Alice in Wonderland (Touhou 5: Mystic Square) Guitar Tab

Submitted: Apr 26, 2015 by ArisuMargatroid

3.666665
Average: 3.7 (3 votes)
Download | Listen
Game: Touhou 5: Mystic Square
Composer(s): ZUN
Style: Transcription
Series: Touhou

AutoScroll: Slow | Medium | Fast
Alice in Wonderland
Touhou 5: Mystic Square
Original Track by: ZUN
Tabbed by: ArisuMargatroid

        Q.     E  H             E.  E.  E  E.  E.  E   
E||--8g10------8--L--------|--------------------------|
B||------------------------|--6g8---6---8----------4--|
G||------------------------|---------------5---7------|
D||------------------------|--------------------------|
A||------------------------|--------------------------|
E||------------------------|--------------------------|


     Q.      E  H           H         E.   E.   E         Q.      E   H         
--8g10------11--8--------|--L--------10---11---13--|--10g13------11---L--------|
-------------------------|-------------------------|---------------------------|
-------------------------|-------------------------|---------------------------|
-------------------------|-------------------------|---------------------------|
-------------------------|-------------------------|---------------------------|
-------------------------|-------------------------|---------------------------|


      E.   E.   E   E.   E.   E         Q.      E   H         
--13g15---13---15------------11--|--10g13------15--11--------|
-------------------13---15-------|---------------------------|
---------------------------------|---------------------------|
---------------------------------|---------------------------|
---------------------------------|---------------------------|
---------------------------------|---------------------------|


   H        E.  E.  E        Q.     E  H             E.  E.  E  E.  E.  E   
---L----------------1--|--8g10------8--L--------|--------------------------|
------------3---4------|------------------------|--6g8---6---8----------4--|
-----------------------|------------------------|---------------5---7------|
-----------------------|------------------------|--------------------------|
-----------------------|------------------------|--------------------------|
-----------------------|------------------------|--------------------------|


     Q.      E  H           H         E.   E.   E         Q.      E   H         
--8g10------11--8--------|--L--------10---11---13--|--10g13------11---L--------|
-------------------------|-------------------------|---------------------------|
-------------------------|-------------------------|---------------------------|
-------------------------|-------------------------|---------------------------|
-------------------------|-------------------------|---------------------------|
-------------------------|-------------------------|---------------------------|


      E.   E.   E   E.   E.   E         Q.      E   H         
--13g15---13---15------------11--|--10g13------15--11--------|
-------------------13---15-------|---------------------------|
---------------------------------|---------------------------|
---------------------------------|---------------------------|
---------------------------------|---------------------------|
---------------------------------|---------------------------|


   H        E.  E.  E        Q.     E  H             E.  E.  E  E.  E.  E   
---L----------------1--|--8g10------8--L--------|--------------------------|
------------3---4------|------------------------|--6g8---6---8----------4--|
-----------------------|------------------------|---------------5---7------|
-----------------------|------------------------|--------------------------|
-----------------------|------------------------|--------------------------|
-----------------------|------------------------|--------------------------|


     Q.      E  H           H         E.   E.   E         Q.      E   H         
--8g10------11--8--------|--L--------10---11---13--|--10g13------11---L--------|
-------------------------|-------------------------|---------------------------|
-------------------------|-------------------------|---------------------------|
-------------------------|-------------------------|---------------------------|
-------------------------|-------------------------|---------------------------|
-------------------------|-------------------------|---------------------------|


      E.   E.   E   E.   E.   E         Q.      E   H         
--13g15---13---15------------11--|--10g13------15--11--------|
-------------------13---15-------|---------------------------|
---------------------------------|---------------------------|
---------------------------------|---------------------------|
---------------------------------|---------------------------|
---------------------------------|---------------------------|


   H        E.  E.  E        Q.     E  H             E.  E.  E  E.  E.  E   
---L----------------1--|--8g10------8--L--------|--------------------------|
------------3---4------|------------------------|--6g8---6---8----------4--|
-----------------------|------------------------|---------------5---7------|
-----------------------|------------------------|--------------------------|
-----------------------|------------------------|--------------------------|
-----------------------|------------------------|--------------------------|


     Q.      E  H           H         E.   E.   E         Q.      E   H         
--8g10------11--8--------|--L--------10---11---13--|--10g13------11---L--------|
-------------------------|-------------------------|---------------------------|
-------------------------|-------------------------|---------------------------|
-------------------------|-------------------------|---------------------------|
-------------------------|-------------------------|---------------------------|
-------------------------|-------------------------|---------------------------|


      E.   E.   E   E.   E.   E         Q.      E   H         
--13g15---13---15------------11--|--10g13------15--11--------|
-------------------13---15-------|---------------------------|
---------------------------------|---------------------------|
---------------------------------|---------------------------|
---------------------------------|---------------------------|
---------------------------------|---------------------------|


   H.           S S E     H        E.  E.  E     H        E.  E.  E    
---L----------------1--|--3----------------3--|--8----------------6b--|
----------------3-4----|---------------4------|---------------4-------|
-----------------------|-----------5----------|-----------5-----------|
-----------------------|----------------------|-----------------------|
-----------------------|----------------------|-----------------------|
-----------------------|----------------------|-----------------------|


  H        E.  E.  E     Q.     S S H           E.  E.  E  Q    Q     
--6----------------6--|--4-------------------|------------------8----|
-----------6----------|---------8-6-8--------|--8---6---5--6---------|
---------------7------|----------------------|-----------------------|
----------------------|----------------------|-----------------------|
----------------------|----------------------|-----------------------|
----------------------|----------------------|-----------------------|


  E.  E.  E  Q    Q       E.  E.   E  H           H        E.  E.  E   
------------------8----|--7---8---10-----------|--7----------------1--|
--6---4---3--4---------|--------------8--------|-----------3---4------|
-----------------------|-----------------------|----------------------|
-----------------------|-----------------------|----------------------|
-----------------------|-----------------------|----------------------|
-----------------------|-----------------------|----------------------|


  H        E.  E.  E     H        E.  E.  E      H        E.  E.  E   
--3----------------3--|--8----------------6b--|--6----------------6--|
---------------4------|---------------4-------|-----------6----------|
-----------5----------|-----------5-----------|---------------7------|
----------------------|-----------------------|----------------------|
----------------------|-----------------------|----------------------|
----------------------|-----------------------|----------------------|


  Q.     S S H           E.  E.  E  Q    Q       E.  E.  E  Q    Q     
--4-------------------|------------------8----|------------------8----|
---------8-6-8--------|--8---6---5--6---------|--6---4---3--4---------|
----------------------|-----------------------|-----------------------|
----------------------|-----------------------|-----------------------|
----------------------|-----------------------|-----------------------|
----------------------|-----------------------|-----------------------|


  E.  E.   E  H           H         E.   E.   E      H         E.   E.   E   
--7---8---10-----------|--7--------10---11---13--|--15------------------15--|
--------------8--------|-------------------------|------------13---16-------|
-----------------------|-------------------------|--------------------------|
-----------------------|-------------------------|--------------------------|
-----------------------|-------------------------|--------------------------|
-----------------------|-------------------------|--------------------------|


   H         E.   E.   E       H         E.   E.   E   
--20------------------18b--|--18------------------18--|
------------13---16--------|------------18---15-------|
---------------------------|--------------------------|
---------------------------|--------------------------|
---------------------------|--------------------------|
---------------------------|--------------------------|


   Q.      S  S  H            E.   E.   E   Q     Q     
--16------15-13-15--------|--15---13---12--13----20----|
--------------------------|----------------------------|
--------------------------|----------------------------|
--------------------------|----------------------------|
--------------------------|----------------------------|
--------------------------|----------------------------|


   E.   E.   E   Q     Q        E.   E.   E   H         
----------------------20----|--19---20---22------------|
--18---16---15--16----------|----------------20--------|
----------------------------|--------------------------|
----------------------------|--------------------------|
----------------------------|--------------------------|
----------------------------|--------------------------|


   H         E.   E.   E      H         E.   E.   E   
--19--------10---11---13--|--15------------------15--|
--------------------------|------------13---16-------|
--------------------------|--------------------------|
--------------------------|--------------------------|
--------------------------|--------------------------|
--------------------------|--------------------------|


   H         E.   E.   E       H         E.   E.   E   
--20------------------18b--|--18------------------18--|
------------13---16--------|------------18---15-------|
---------------------------|--------------------------|
---------------------------|--------------------------|
---------------------------|--------------------------|
---------------------------|--------------------------|


   Q.      S  S  H            E.   E.   E   Q     Q     
--16------15-13-15--------|--15---13---12--13----20----|
--------------------------|----------------------------|
--------------------------|----------------------------|
--------------------------|----------------------------|
--------------------------|----------------------------|
--------------------------|----------------------------|


   E.   E.   E   Q     Q        E.   E.   E   E.   E.   E   
----------------------20----|--19---20---22--15---25---22--|
--18---16---15--16----------|------------------------------|
----------------------------|------------------------------|
----------------------------|------------------------------|
----------------------------|------------------------------|
----------------------------|------------------------------|


   W                  
--23----------------||
--------------------||
--------------------||
--------------------||
--------------------||
--------------------||
Login or Register to remove this ad.