Witching Dream (Touhou 4: Lotus Land Story) Guitar Tab

Submitted: Jan 21, 2015 by Bessem (Last updated: Jan 21, 2015)

5
Average: 5 (1 vote)
Download | Listen
Game: Touhou 4: Lotus Land Story
Composer(s): ZUN
Style: Arrangement, Fingerstyle, Natural harmonics
Series: Touhou

Click here for a video example.

AutoScroll: Slow | Medium | Fast
the main melody

Piste 1
             E.  E.  E  H           Q.     E  Q    Q     
E||-------|----------------------|----------------------|
B||-------|----------------------|----------------------|
G||-------|--2---0---2-----------|---------2------------|
D||-------|-------------3--------|--2--------------2----|
A||-------|----------------------|--0---------0---------|
E||-------|--1----------4--------|----------------------|


  E.  E.  E  E.  E.  E     Q    E.  T T E  E  Q       E.  E.  E  H         
-----------------0------|--------------------------|----------------------|
---------------------3--|--1----L---0-1-0----------|----------------------|
------0---2--1----------|------------------2-------|------0---2-----------|
--3---------------------|---------------------2----|--3----------3--------|
------------------------|--0------------0----------|----------------------|
--1----------0----------|--------------------------|--1----------4--------|


               NH                                                       
  Q.     E     Q    Q       E.  E.  E  E.  E.  E     H        H         
-------------------------|------------------------|--------------------|
--------------------0----|----------1--0----------|-----------0--------|
---------2---------------|-----------------1------|--2-----------------|
--2----------------------|------2--------------2--|--------------------|
--0---------<>15---------|--3---------------------|--------------------|
-------------------------|-------------0----------|--1--------3--------|


  E.  E.  E  H           Q.     E  Q    Q       E.  E.  E  E.  E.  E   
----------------------|----------------------|-----------------0------|
----------------------|----------------------|---------------------3--|
--2---0---2-----------|---------2------------|------0---2--1----------|
-------------3--------|--2--------------2----|--3---------------------|
----------------------|--0---------0---------|------------------------|
--1----------4--------|----------------------|--1----------0----------|


  Q.     S T T E  E  Q       E.  E.  E  H           Q.     E  Q    Q     
--------------------------|----------------------|----------------------|
--1------L-0-1-0----------|----------------------|-----------------0----|
------------------2-------|------0---2-----------|---------2------------|
---------------------2----|--3----------3--------|--2-------------------|
--0------------0----------|----------------------|--0---------0---------|
--------------------------|--1----------4--------|----------------------|


  E.  E.  E  E.  E.  E     H        Q    E  E    
------------------------|----------------------||
----------1--0----------|-----------0----1--3--||
-----------------1------|--2-------------------||
------2--------------2--|----------------------||
--3---------------------|----------------------||
-------------0----------|--1--------3----------||
Login or Register to remove this ad.