Vessel of Stars ~ Casket of Star (Touhou 4: Lotus Land Story) Guitar Tab

Submitted: Aug 10, 2014 by Bessem

5
Average: 5 (3 votes)
Download | Listen
Game: Touhou 4: Lotus Land Story
Composer(s): ZUN
Style: Arrangement, Fingerstyle
Series: Touhou

This song is also called Marisa Kirisame's Theme

AutoScroll: Slow | Medium | Fast
From Touhou 4 : Lotus land stroy 
Stage 4 boss B theme : Marisa Kirisame
the song was réarranged for Touhou 10.5 : Scarlet weather rhapsody 
my tab is on Am but the original one in SWR is on Gm

     E  E  E  Q    E  E  E     E  E  E  Q    E  E  E   
E||-------------------------|-------------------------|
B||--------0----------0--3--|--L--1--0-------------0--|
G||-----2----------2--------|-----------2-------2-----|
D||--2--------2-------------|----------------2--------|
A||--0--L--L--L----L--L--0--|-------------------------|
E||-------------------------|-------------------------|


  E  E  E  Q    E  E  E     E  E  E  Q    E  E  E     E  E  E  Q    E  E  E   
-------------------------|-------------------------|-------------------------|
--------0----------0--3--|--L--1--0-------------0--|--------0----------0--3--|
-----2----------2--------|-----------2-------2-----|-----2----------2--------|
--2--------2-------------|----------------2--------|--2--------2-------------|
-------------------------|-------------------------|-------------------------|
--3-------------------3--|-------------------------|--1-------------------1--|


  E  E  E  Q    E  E  E     E  Q    E  Q    E  E     Q    Q    E  E  E  E   
-------------------------|--0-------0-------0--0--|-------0----0-----------|
--L--1--0-------0--1--3--|--0-------0-------0--0--|-------0-------3--1--0--|
-----------2-------------|--1-------1-------1--1--|-------1----1-----------|
-------------------------|--2-------2-------2--2--|------------------------|
-------------------------|--2-------2-------2--2--|------------------------|
-------------------------|--0-------0-------0--0--|-------0----0--0--3--4--|


  Q.     Q    E  E  E     E  Q    Q    E  Q       E  E  E  Q    E  E  E   
-----------------0-----|-----------------------|-------------------------|
--------------------3--|--L--0------------0----|-----0--1--0-------------|
--2-----------2--------|----------0----2-------|--2-------------0-----2--|
---------2-------------|-----------------------|-------------------2-----|
--0--------------------|-----------------------|----------------------0--|
--------------------3--|-----------------------|--1--------3-------------|


  W                   Q.     Q    E  E  E     E  E  E  Q    E  E  E   
-------------------|---------0----0--------|-------------------------|
-------------------|-----------------3--0--|-------------------0-----|
--L----------------|--2--------------------|--2--0-----2-------------|
-------------------|---------2-------------|--------2-------2-----2--|
-------------------|--0--------------------|-------------------------|
-------------------|-----------------------|--3----------------------|


  E  E  E  Q    E  E  E     H        E  E  E  E     Q.     Q    E  E  E   
--------0----------------|-----------------------|-----------------0-----|
--1--3-----3-------3--1--|--L--------L-----------|--------------------3--|
----------------0--------|-----------------0--1--|--2-----------2--------|
-------------------------|--------------2--------|---------2-------------|
----------------------0--|--L--------------------|--0--------------------|
--1--------3-------------|-----------------------|--------------------3--|


  E  Q    Q    E  Q       E  E  E  Q    E  E  E     W                 
-----------------------|-------------------------|-------------------|
--L--0------------0----|-----0--1--0-------------|-------------------|
----------0----2-------|--2-------------0-----2--|--L----------------|
-----------------------|-------------------2-----|-------------------|
-----------------------|----------------------0--|--L----------------|
-----------------------|--1--------3-------------|-------------------|


  Q.     Q    E  E  E     E  E  E  Q    E  E  E     E  E  E  Q    E  E  E   
---------0-------------|-------------------------|--------0-------3--------|
--------------3--1--0--|-------------------0-----|--1--3-----3-------3--1--|
--2--------------------|--2--0-----2-------------|-------------------------|
-----------------------|--------2-------2-----2--|-------------------------|
--0--------------------|-------------------------|----------------------0--|
--------------3--------|-------------------------|--1--------3-------------|


                           ^        ^       ^                           
               |--3--|                                                  
  H.           E  E  E     H        Q    E  E     H        E  E  E  E   
------------------------|----------------------|-----------------------|
--L---------------------|----------------0-----|--------------0--1--3--|
------------------0--1--|--2--------0-------2--|--L--------2-----------|
---------------2--------|--3--------0-------2--|--L--------------------|
--L---------------------|--3--------2-------3--|--L--------------------|
------------------------|--1--------3-------5--|-----------------------|


                                                  ^        ^      ^   
  Q    Q    Q    E  E     H        E  E  E  E     H        Q.     E   
--0----5----3----5--0--|--L--------------------|---------------------|
--1----5----3-------0--|--L--------5--3--1--0--|-----------0------1--|
--2----5----2-------1--|--L--------------------|--2--------0------2--|
-----------------------|-----------------------|--3--------0------2--|
-----------------------|-----------------------|--3---------------0--|
--1---------3-------0--|-----------------------|--1--------3---------|


                          ^        ^      v                 NH         
  H        E  E  E  E     H        Q.     E     H           H          
-----------------------|---------------------|------------------------|
--L--------------0--1--|--1--------3------0--|--L--------<>12~--------|
--L--------0--2--------|--2--------2------1--|--L-----------L---------|
--L--------------------|--2--------3------2--|--L-----------L---------|
-----------------------|--0--------5---------|------------------------|
-----------------------|------------------0--|--L-----------L---------|


  Q    E  E  E  E  E  E     H        E  E  E  E     Q    Q    Q    E  E   
-------------------------|-----------------------|--0----5----3----5--0--|
----------1--------0-----|--------------0--1--3--|--1----5----3-------0--|
-------2-----0--0-----2--|--L--------2-----------|--2----5----4-------1--|
--3----------0--------2--|--L--------------------|-----------------------|
--3----------2--------3--|--L--------------------|-----------------------|
--1----------3--------5--|-----------------------|--1---------3-------0--|


                             ^        ^      ^                           
  H        E  E  S  S  E     H        Q.     E     H        E  E  E  E   
--L-----------------------|---------------------|-----------------------|
--L--------5--3--0h-1p-0--|-----------0------1--|--L--------------0--1--|
--L-----------------------|--2--------0------2--|--L--------0--2--------|
--------------------------|--3--------0------2--|--L--------------------|
--------------------------|--3---------------0--|-----------------------|
--L-----------------------|--1--------3---------|-----------------------|


  ^        ^                                                            
  H        Q    Q       Q.     E  E  E  E  E     E.  E.  Q    E  E  E   
----------------5----|--4---------------------|---------------0--------|
--1--------3---------|--0------5--3-----0-----|------------------3--1--|
--2--------2---------|--1------------5-----0--|--2---0-----------------|
--2--------3---------|--2---------------------|----------2-------------|
--0--------5---------|------------------------|---------------------0--|
---------------------|--0---------------------|--1-------3-------------|


  E.  E.  E  E.  E.  E     E.  E.  E  E.  E.  E     H        E  E  E  E   
------------------------|---------------------0--|-----------------------|
--0---1---0-------------|-----------------3------|--1--------1--0--------|
-------------2---0------|--2---0------1----------|-----------------2--0--|
---------------------2--|----------2-------------|--2--------------------|
--L----------3----------|------------------------|--0--------------------|
------------------------|--1----------3----------|-----------------------|


  E.  E.  Q    E  E  E     E.  E.  E  E.  E.  E     E.  E.  E  E  E  E  E   
---------------0--------|------------------------|-------------------------|
------------------3--1--|--0---1---0-------------|-------------------1--0--|
--2---0-----------------|-------------2---0------|-------------1-----------|
----------2-------------|---------------------2--|------0---2--0--2--------|
------------------------|--0---L------3----------|--3----------------------|
--1------------3--------|------------------------|--1----------3-----------|


  Q.     Q    E  E  E     E.  E.  Q    E  E  E     E.  E.  E  E.  E.  E   
-----------------------|---------------0--------|------------------------|
--0--------------------|------------------3--1--|--0---1---0-------------|
---------2----------0--|--2---0-----------------|-------------2---0------|
--------------2--3-----|----------2-------------|---------------------2--|
--0--------------------|------------------------|--0----------3----------|
-----------------------|--1------------3--------|------------------------|


  E.  E.  E  E.  E.  E     H        E  E  E  E     E.  E.  Q    E  E  E   
---------------------0--|-----------------------|---------------0--------|
-----------------3------|--1--------1--0--------|------------------3--1--|
--2---0------1----------|-----------------2--0--|--2---0-----------------|
----------2--0----------|--2--------------------|----------2-------------|
--3---------------------|--0--------------------|------------------------|
--1----------3----------|-----------------------|--1------------3--------|


  E.  E.  E  E.  E.  S S    E.  E.  E  E.  E.  E     H.           E  S S  
------3---1--0-----------|------------------------|----------------------|
--0--------------3-----0-|--0---1---3--0-------1--|--1------------L--1-0-|
---------------------2---|-----------------1------|----------------------|
-------------------------|-------------0----------|--2-------------------|
--0--------------3-------|------------------------|--0---------------3-L-|
-------------------------|--1----------3----------|----------------------|


                          ^                                        
  H        E  E  E  E     W                                        
--------------------0--|--5-----------------||-------------------||
-----------------1-----|--5-----------------||-------------------||
--2-----------2--------|--5----------------*||-------------------||
-----------2-----------|-------------------*||-------------------||
--0--------------------|--0-----------------||-------------------||
-----------------------|--------------------||-------------------||
Login or Register to remove this ad.