Ads

Sleeping Terror (Touhou 4: Lotus Land Story) Guitar Tab

Submitted: Sep 05, 2014 by Bessem (Last updated: Dec 21, 2014)

5
Average: 5 (5 votes)
Download | Listen
Game: Touhou 4: Lotus Land Story
Composer(s): ZUN
Style: Arrangement, Fingerstyle
Series: Touhou

This song is also called Yuka Kazami's Theme

Click here for a video example.

AutoScroll: Slow | Medium | Fast
Yuka's theme in Am

Piste 1
     ^                        ^                          ^                      
     Q    Q    Q    E  S S    E  E  E  E  E  S E.  E     Q    Q    Q    E  S S  
E||-----------------0------|-----------------0--------|-----------------0------|
B||-------0----1-----------|--------0--0--1-----------|-------0----1-----------|
G||--2-----------------0-2-|--2--2-------------0---2--|--2-----------------0-2-|
D||--2---------------------|--0-----------------------|--3---------------------|
A||--0---------------------|--2-----------------------|--3---------------------|
E||------------------------|--3-----------------------|--1---------------------|


  ^                            ^                      
  E  E  E  S S S S S S Q       Q    Q    E  S E  E.   
---------------0------------|---------------5--------|
-------------------3---0----|--1----3----5--5-5--3---|
--1--1--2--1-2---1---1------|--2----4----5----5--4---|
--2-------------------------|------------------------|
--2-------------------------|--0------------0--------|
--0-------------------------|------------------------|


  ^                          ^                      
  E  E  E  E  E  S E.  E     Q    Q    E  S E  E.   
-----------------5--------|---------------5----5---|
--1--1--3--3--5--5-5---3--|--1----3----5--5-5------|
--2--2--4--4--5----5---4--|--2----4----5----5------|
--------------------------|------------------------|
--------------------------|------------------------|
--3-----------3-----------|--1---------1-----------|


                                                    ^                      
  E  E  E  S S S S S S Q       W                    Q    Q    Q    E  S S  
--4-------------------------|--------------------|-----------------0------|
---------------5---3---0----|--------------------|-------0----1-----------|
-----1--2--1-2---1---1------|--------------------|--2-----------------0-2-|
----------------------------|--------------------|------------------------|
----------------------------|--7\----------------|--0----0----0----0------|
--0-------------------------|--------------------|------------------------|


  E  E  E  E  E  S E.  E     Q    Q    Q    E  S S  
-----------------0--------|-----------------0------|
--------0--0--1-----------|-------0----1-----------|
--2--2-------------0---2--|--2-----------------0-2-|
--------------------------|------------------------|
--------------------------|------------------------|
--3-----3-----3----3------|--1----1----1----1------|


  E  E  E  S S S S S S Q       Q    Q    E  S E  E.   
---------------0------------|---------------5--------|
-------------------3---0----|--1----3----5--5-5--3---|
--1--1--2--1-2---1---1------|--2----4----5----5--4---|
----------------------------|------------------------|
----------------------------|--0----0----0--0--------|
--0-----0----0-----0--------|------------------------|


  E  E  E  E  E  S E.  E     Q    Q    E  S E  E.   
-----------------5--------|---------------5----5---|
--1--1--3--3--5--5-5---3--|--1----3----5--5-5------|
--2--2--4--4--5----5---4--|--2----4----5----5------|
--------------------------|------------------------|
--------------------------|------------------------|
--3-----3-----3----3------|--1----1----1----1------|


  E  E  E  S S S S S S Q       E   E  E  E  S  S E  E  E   
--4-----0-------------------|---------0-------------------|
---------------5---3---0----|--1h--3--------0h-1-0--------|
-----------1-2---1---1------|------------2----------2--0--|
-----2----------------------|-----------------------------|
----------------------------|--0--------------------------|
--0-----0----0---0----------|---------------3-------------|


  E  E  E  E  E  E  E  E     E  E  E  E  S  S  E  E  E   
--------------------------|--------0--------------------|
--------------0--1--0-----|--1--3--------0h-1p-0--------|
--2--------2-----------2--|-----------2-----------2--0--|
--------2-----------------|-----------------------------|
-----3--------------------|--0--------------------------|
--1-----------3-----------|--------------3--------------|


  E  E  E  E  E  E  E  E     E  E  E  E  S  S  E  E  E   
--------------------------|-----------------------------|
-----------1--0-----0-----|-----0--1-----1h-3p-1--0-----|
--2--------------2-----2--|--2--------2--------------2--|
--------2-----------------|-----------------------------|
-----3--------------------|--0--------------------------|
--1-----------3-----------|--------------3--------------|


                                                           ^        ^
  E  E  E  E  E  E  E  E     E  E  E  E  S  S  E  E  E     H        H         
--------------------------|-----------------------------|--------------------|
--------------0--------0--|-----0--1-----1h-3p-1--0-----|-----------0--------|
--2--------2--------2-----|--2--------2--------------2--|--2--------0--------|
--------2--------2--------|-----------------------------|--3--------0--------|
-----3--------------------|--0--------------------------|--3--------2--------|
--1-----------3-----------|--------------0--------------|--1--------3--------|



  E   E  E  E  S  S E  E  E     E  E  E  E  E  E  E  E   
---------0-------------------|--------------------------|
--1h--3--------0h-1-0--------|--------------0--1--0-----|
------------2----------2--0--|--2--------2-----------2--|
-----------------------------|--------2-----------------|
--0--------------------------|-----3--------------------|
---------------3-------------|--1-----------3-----------|


  E  E  E  E  S  S  E  E  E     E  E  E  E  E  E  E  E   
--------0--------------------|--------------------------|
--1--3--------0h-1p-0--------|-----------1--0-----0-----|
-----------2-----------2--0--|--2--------------2-----2--|
-----------------------------|--------2-----------------|
--0--------------------------|-----3--------------------|
--------------3--------------|--1-----------3-----------|


  E  E  E  E  S  S  E  E  E     E  E  E  E  E  E  E  E   
-----------------------------|--------------------------|
-----0--1-----1h-3p-1--0-----|--------------0--------0--|
--2--------2--------------2--|--2--------2--------2-----|
-----------------------------|--------2--------2--------|
--0--------------------------|-----3--------------------|
--------------3--------------|--1-----------3-----------|


                                ^        ^           ^
  E  E  E  E  S  S  E  E  E     H        H           W                 
-----------------------------|--------------------|--0----------------||
-----0--1-----1h-3p-1--0-----|-----------0--------|--1----------------||
--2--------2--------------2--|--2--------0--------|--2----------------||
-----------------------------|--3--------0--------|--2----------------||
--0--------------------------|--3--------2--------|--0----------------||
--------------0--------------|--1--------3--------|-------------------||
Login or Register to remove this ad.