Bad Apple!! (Touhou 4: Lotus Land Story) Guitar Tab

Submitted: Jan 16, 2011 by TrangOul

5
Average: 5 (11 votes)
Download | Listen
Game: Touhou 4: Lotus Land Story
Composer(s): ZUN
Style: Arrangement, Artificial harmonics, Fingerstyle, Natural harmonics
Series: Touhou

AutoScroll: Slow | Medium | Fast
"Bad Apple!!"
from "Touhou 4: Lotus Land Story"
originally composed by ZUN (Junya Ota)
arranged by Marcus Kasperski

Drop D Tuning | Capo 1

Allegro
     Q    E  E  E  E  E  E     E  E  E  E  Q    E   E     Q    E  E  E  E  E  E   
E||-------------------------|--------------------------|-------------------------|
B||-------3-----------3-----|--------3-----6----6s--8--|-------3-----------3-----|
G||-------2-----------2-----|--------2-----5----5s--7--|-------2-----------2-----|
D||-------------------------|--------------------------|-------------------------|
A||-------------------------|--------------------------|-------------------------|
D||--0-------0--0--0-----0--|--L--0-----0--3----3s--5--|--0-------0--0--0-----0--|


  E  E  E  E  Q    Q          E  E  E  E  E  E  E  E     Q    E  E  E  E  E  E   
-------------------------||---------------------------|-------------------------|
--------3-----8----6-----||---------------------3--1--|-------------------------|
--------2-----7----5----*||*-----------0--2-----------|--2----------2--0--------|
------------------------*||*--0--2--3-----------------|-------0-----------3--2--|
-------------------------||---------------------------|-------------------------|
--L--0-----0--5----3-----||---0--------0-----0--------|--0-------0-----------0--|


  E  E  E  E  E  E  E  E     E  E  E  E  E  E  E  E       Q    E  E  Q    E  E   
--------------------------|---------------------------||------------------------|
--------------------------|---------------------------||------------------------|
-----------0--2-----0-----|--------------------------*||-------------0----2-----|
--0--2--3--------------3--|--2--0--2--3--2--0-----2--*||--2----3----------------|
--1--------1-----1--------|--3-----------4-----4------||--3-------3--4-------4--|
--------------------------|---------------------------||------------------------|


  E  S S E  E  S E.  E  E     E.  S E  E  S S E  E  E     E  S S E  E  S E.  E  E   
---------------------------|---------------------------|---------------------------|
---------------------3--1--|---------------------------|---------------------1-----|
------------0--2-----------|--2-----------2---3--2--0--|-----0---2--3--2--------3--|
--0--2---3-----------------|--------0------------------|--3------------------------|
---------------------------|---------------------------|--1----1----1----1---1--1--|
--0----0----0----0---0--0--|--0---0----0----0----0--0--|---------------------------|


  E  S S E  E  E  S S E  E     E  S S E  E  S E.   E  E     E.  S E  E  S S E  E  E   
-------------------------0--|-----0---1--3--5-----10--8--|--5-----------5------------|
------------1--2------2-----|--3-------------------------|------------------8--6--5--|
--2--0---2--------2---------|----------------------------|--------7------------------|
----------------------------|----------------------------|---------------------------|
--3----3----3--4----4----4--|----------------------------|---------------------------|
----------------------------|--0----0----0----0----0--0--|--0---0----0----0----0--0--|


  E  S S E  E  S E.  E  E     E  S S E  E  Q    Q       E   S S  E  E   E  E  E   E   
---------------5-----------|--0------0--1--3----5----|--8--10------------------------|
-----5---6--8--------8--6--|-----3------1--2----2----|----------10--8--10-----8--10--|
--7------------------------|-------------------------|-------------------------------|
---------------------------|-------------------------|-------------------------------|
---------------------------|--3----3----3--4----4----|-------------------------------|
--8----8----8----8---8--8--|-------------------------|--8-----8-----L------8------8--|


   E   S  S  E  E   E   E  E  E     E  S S E  E  E  E  E  E     E  S S E  E  E  E   E  E   
---8--10-------------------------|---------------------------|-------------------------8--|
------------10--8--10------------|---------------------------|---------------------10-----|
---------------------------0--2--|--0------------------------|---------0--2---------------|
---------------------------------|-----3---0-----0--------0--|--2--3---------0------------|
------------------------------3--|------------3--------3-----|----------------------------|
--10-----10-----L------10--------|--0----0----L-----0-----0--|--0----0----L-----0------0--|


   E   S S  E  E   E  E  E   E      E   S  S  E  E   E   E  E  E     E  S S E  E  E  E  E  E   
---8--10------------------------|---8--10-------------------------|---------------------------|
-----------10--8--10-----8--10--|------------10--8--10------------|---------------------------|
--10-------10-----10--------10--|---9---------9------9------0--2--|--0------------------------|
--------------------------------|---------------------------------|-----3---2-----0--------0--|
--------------------------------|------------------------------3--|------------3--------3-----|
---8-----8-----L------8------8--|--10-----10-----L------10--------|--0----0----L-----0-----0--|


  E  S S E  E  E  E  E  E     E  S S E  E  E  E  E  E     E  S S E  E  E  E  E  E   
---------------------------|---------------------------|---------------------------|
------------------------1--|--1--3-1-------------------|--1--3-1-------------------|
---------0--2--------2-----|---------2--0--2-----0--2--|---------2--0--2-----0--2--|
--2--3---------0-----------|---------------------------|---------------------------|
---------------------------|--1---------L-----1-----1--|--3---------L-----3-----3--|
--0----0----L-----0-----0--|---------------------------|---------------------------|


     |-3-|                                                                            
  E  S S S E  E  E  E  E  E     E  S S E  E  E  E  E  E     S S E  E  E  E  E  E  E   
-----------------------------|---------------------------|---------------------------|
-----------------------------|------------------------1--|--1-3-1--------------------|
--0--------------------------|---------0--2--------2-----|--0------2--0--2-----0--2--|
-----2-3-2-0-----0--------0--|--2--3---------0--------3--|---------------------------|
--------------3--------3-----|---------------------------|--1---------L-----1-----1--|
--0-----------L-----0-----0--|--0----0----L-----0-----0--|---------------------------|


                              |-3-|                         |-3-|                       
  S S E  E  E  E  E  E  E     S S S E  E  E  E  E  E  E     S S S E  E  E  Q     E  E   
------------------------0--|--1-3-1-0--------------------|--------------------------8--|
--1-3-1--------------3-----|-----------3--1--------------|----------------------10-----|
---------2--0--2--------0--|--2--------------2-----0--2--|--0-2-0----------------------|
--2------------------------|--0-----------L-----0-----0--|--------3--2-----0-----------|
--3---------L-----3-----3--|-----------------------------|--------------3--------------|
---------------------------|-----------------------------|--0-----------L-----------0--|


   E   E   E  E   E  E  E   E      E   E   E  E   E   E  E   E     E  E  E  E  E  E  E  E   
---8--10-----------------------|---8--10------------------------|--------------------------|
----------10--8--10-----8--10--|----------10--8--10------8--10--|--8--6--------------------|
--10---------------------------|---9----------------------------|--------7--5--7-----5--7--|
-------------------------------|--------------------------------|--0--------L-----0--------|
-------------------------------|--------------------------------|--------------------------|
---8----------L------8---------|--10----------L------10---------|--------------------------|


  E  E  E  E  E  E   E  E      E   S S  E  E   E  E  E   E      E   S S  E   E   E   E  E   E   
-----------5------------8--|---8--10-8----------------------|---8--10-8------------------------|
--5--6--8-----------10-----|-----------10--8--10-----8--10--|-----------10---8--10------8--10--|
--------------7------------|--10-------10-----10--------10--|---9--------9-------9----------9--|
---------------------------|--------------------------------|----------------------------------|
---------------------------|--------------------------------|----------------------------------|
--0--------L-----0---------|---8-----------8------8------8--|--10-----------10------10-----10--|


                                                                   AH            
  E  E  E  E  E  E  E  E     E  E  E  E  E  E  E  E     Q    E     Q.     E  E   
--------------------------|-----------5--------------|--------------------------|
--8--6--5-----------------|--5--6--8--------------1--|--1-------<>15------------|
-----------5--7-----5--7--|--------------7-----2-----|--------------------0--2--|
--0--------0-----0-----0--|--------------------------|--3-----------------------|
--------------------------|--------------------------|--1----1------------1-----|
--------------------------|--0--------0-----0-----0--|--------------------------|


             AH                                                                  
  Q    E     Q.     E  E     E  E  E  E  E  E  E  E     E  E  E  E  E  E  E  E   
--------------------------|--------------------------|--------------------------|
--1-------<>15------------|--------------------------|-----------------------1--|
--------------------0--2--|--0-----------------------|--------0--2--------2-----|
--2-----------------------|-----3--2-----0--------0--|--2--3--------0-----------|
--3----3------------3-----|-----------3--------3-----|--------------------------|
--------------------------|--0--------L-----0-----0--|--0--------L-----0-----0--|


  E  E  E  E  E  E  E  E     E  E  E  E  E  E  E  E     E  E  E  E  E  E  E  E   
--------------------------|-----------------------0--|--1--0--------------------|
--1--3--------------------|--1--3--------------3-----|--------3--1--------------|
--------2--0--2-----0--2--|--------2--0--2-----------|--------------2-----0--2--|
--------------------------|--------------------------|--0--0--0--0--0--0--0--0--|
--1--1--1--1--1--1--1--1--|--3--3--3--3--3--3--3--3--|--------------------------|
--------------------------|--------------------------|--------------------------|


                                        NH            
  E  E  E  E  E  E  E  E     E  Q       H        E    
--------------------------|-------------------------||
--------------------------|-------------------------||
--0-----------------------|-------------------------||
-----3--2-----------------|----------<>12--------L--||
-----------3--5-----------|----------<>12--------L--||
--0-----------5--5--3--3--|--0----------------------||




Duration Legend
---------------
H - half
Q - quarter
E - 8th
S - 16th
. - note dotted
|-n-|  - n-tuplets


Tablature Legend
----------------
L - tied note
x - dead note
NH - natural harmonic
AH - artificial harmonic
s - slide
Login or Register to remove this ad.

5 comments on Bad Apple!!

srsly xD??

srsly xD?? thats awsome!

im so gonna learn this!

This is really fun to play

This is really fun to play haha. Great interpretation

If I can play this half as

5

If I can play this half as good as the midi sounds, panties will drop. My panties.

Great !

5

Since I adore this tune, your tab make my day :D Many thanks !

Bass pls

Definitely needs a bass tab