Login or Register to remove this ad.

Magus Night (Touhou 12.8: Fairy Wars) Guitar Tab

Submitted: Dec 26, 2016 by Bessem

5
Average: 5 (2 votes)
Download | Listen
Game: Touhou 12.8: Fairy Wars
Composer(s): ZUN
Style: Arrangement, Fingerstyle
Series: Touhou

This song is also called Marisa Kirisame's Theme

Click here for a video example.

AutoScroll: Slow | Medium | Fast
Piste 1
     S. S. S S. S. S S. S. S S S S S    S. S. S S S S S S. S. S E.  S  
E||--------0-------------------------|--------0-3-2-0-----------0---4-|
B||-----1----4-----1-3-----1-0-------|-----1----------3-0-----0-0-----|
G||--2----------4-------1------2-----|--2------------------1----1-----|
D||------------------------------2---|--------------------------------|
A||--0-------2---------------0-------|--0-------2---------------------|
E||------------------0---------------|------------------0-------0-----|


  S. S. S S. S. S S. S. S S S S S    S. S. S S. S. S H         
--5-----5-7-----7-5--4------------|--------0------------------|
-----5------------------5-3-1-0---|-----1----3--0-------------|
-------------8------------------0-|--2-------------0-2--------|
----------------------------------|---------------------------|
--0-----------------------0-------|------------------0--------|
----------7-------0---------------|--1-------3----------------|


    S.S. S S. S. S   S.S. T  T  S S S S    S. S. S S S S S S. S. S E.  S  
---------0------------------------------|--------0-3-2-0-----------0---4-|
------1----4-----1-1g3----0h-1p-0-------|-----1----------3-0-----0-0-----|
--1g2---------4--------1----------2-----|--2------------------1----1-----|
------------------------------------2---|--------------------------------|
----0------2--------------------0-------|--0-------2---------------------|
---------------------0------------------|------------------0-------0-----|


  S. S. S S. S. S S. S. S S S S S    S. S. S S. S. S Q    Q      
--5-----5-7-----7-5--4------------|--------0--------------5----||
-----5------------------5-3-1-0---|-----1----3--0---------5----||
-------------8------------------0-|--2-------------0-2---------||
----------------------------------|----------------------------||
--0-----------------------0-------|------------------0---------||
----------7-------0---------------|--1-------3-----------------||
Login or Register to remove this ad.